Song name
# A B C D E F G H I J K L M N O P Q R S T U V W X Y Z

Gigi - 11 Januari tab

Help us improve GuitareTab! Take a short survey!
By : Bagus Arivianto

E-3-------3-3-------3-------3-------------3-------3-3-------1-0------|
B-----1---------1-------1---------1p0---------1---------1-------3----|
G---0---0-----0-------0---0---0-------2-----0---0-----0--------------|
D-----------3-------------------3-------------------3-------0--------|
A--------------------------------------------------------------------|
E-0-----------------0---------------------0---------------------3----|


bridge

E-5-----5---------5-----5---------5-----5----------------------------|
B-----5---6-----------5---6-----------5-----3-----1-0-0--------------|
G---5---------5-----5---------5-----5---------2---------2-2-0-0------|
D-----------7---------------7---------------0------------------------|
A-0-------8-------0-------8-------0----------------------------------|
E-------------------------------------------------3-------3----------|


chorus

E---0-0-------------1-1-0-0-------0-0----------------1-0-------------|
B-----------3-3-------------3-------------3-3----0-1-----3-----------|
G-0-------0-------2-------------0-------0------2---------------------|
D-----------------0--------------------------------------------------|
A-3-----------------------0-----3------------------------------------|
E---------3-----------------3-----------3------1-------3-------------|

E---0-0-------------1-1-0-0-------0-0--------------------------1-0---|
B-----------3-3-------------3-------------3-3----0-1-1-----0-1-----3-|
G-0-------0-------2-------------0-------0------2---------2-----------|
D-----------------0--------------------------------------------------|
A-3-----------------------0-----3------------------------------------|
E---------3-----------------3-----------3------1---------2-------3---|


interlude

E--------------------------------------------------------------------|
B-------12-13-12-13-12-13------------12-13-12-13-12-13-15------------|
G----14---------------------------14---------------------------------|
D-14----------------------14---14------------------------------------|
A--------------------------------------------------------------------|
E--------------------------------------------------------------------|

E--------------------------------------------------------------------|
B-------12-13-12-13-12-13------------12-13-12-13-12-13-15-16---------|
G----14---------------------------14---------------------------------|
D-14----------------------14---14------------------------------------|
A--------------------------------------------------------------------|
E--------------------------------------------------------------------|

E----------12----12----12---------------12----12----12-13-12---------|
B----13-15----15----15------------13-15----15----15------------------|
G-14----------------------14---14------------------------------------|
D--------------------------------------------------------------------|
A--------------------------------------------------------------------|
E--------------------------------------------------------------------|

E----------12----12----12---------------12----12-13-12---------------|
B----13-15----15----15------------13-15----15----------15------------|
G-14----------------------14---12------------------------------------|
D--------------------------------------------------------------------|
A--------------------------------------------------------------------|
E--------------------------------------------------------------------|
Related for 11 Januari tab