Song name
# A B C D E F G H I J K L M N O P Q R S T U V W X Y Z

Gil Manteras Party Dream - Elmos Wish chords

E---------------------------|--------------------|--------------------------|
B---------------------------|--------------------|--------------------------|
G------------9------7\6b7---|--6-----------------|------------9-----9b11----|
D--------7------------------|--------------------|---------7----------------|
A--9--10--------------------|--------------------|--9--10-------------------|
E---------------------------|--------------------|--------------------------|


-----------------------------|--------------------------|
-----------------------------|--------------------------|
---r9---7-----------14pb16---|-r14------14b15r14--------|
-----------------------------|-----16-------------12----|
-----------------------------|--------------------------|
-----------------------------|--------------------------|


----------------------------------|-----------------------------------|
----------------------------------|-----------15--15--15--15--15--15--|
--------14------------------------|--------14-14--14--14--14--14--14--|
--14b16----14pb16r14--12------12--|------14---------------------------|
--------------------------14------|-----------------------------------|
----------------------------------|-----------------------------------|


------------------------------------|--------------------------------------|
--15--15----15-15-15-15-------15-15-|--15-15-------15-15-15-15-------------|
--14--14----14-14-14-14-------14-14-|--14-14-------14-14-14-14-------------|
------------12-12-12-12-------12-12-|--12-12-------12-12-12-12-------------|
------------------------14----------|--------12----------------10\9--9/10--|
------------------------------------|--------------------------------------|


-------------------------------|--------------------------------------|
-------15-15-15-15-------15-15-|--15-15-------15-15-15-15-------------|
-------14-14-14-14-------14-14-|--14-14-------14-14-14-14-------------|
-------12-12-12-12-------12-12-|--12-12-------12-12-12-12-------------|
--9----------------14----------|--------12----------------10\9----9/10|
-------------------------------|--------------------------------------|


------------------------------|--------------------------------------|
------------------------------|--------------------------------------|
------------------------------|--------------------------------------|
-------12p0-0-0-12p0-0-0-12p0-|--0-0-12p0-0-0-14p0-0-0-14p0-0-0-14p0-|
-12---------------------------|--------------------------------------|
------------------------------|--------------------------------------|


--------------------------------------|-----------------------------------|
--------------------------------------|-----------------------------------|
--------------------------------------|-------------------18--18--19--19--|
--0-0-14p0-0-0-16p0-0-0-16p0-0-0-17p0-|--0-0-17p0-0-0-19------------------|
--------------------------------------|-----------------------------------|
--------------------------------------|-----------------------------------|

Tablature Legend
----------------
h - hammer on
p - pull off
b - bend
br - bendRelease
pb - preBend
pbr - preBendRelease
brb - bendReleaseBend
/  slide up
\  slide down


http://www.partydream.com/
Tap to rate this tab
 
# A B C D E F G H I J K L M N O P Q R S T U V W X Y Z