Song name
# A B C D E F G H I J K L M N O P Q R S T U V W X Y Z

Gil Ofarim - Stop Lying tab

Help us improve GuitareTab! Take a short survey!
Des is so des gröbste von dem Lied. Hoffe es stimmt.


Intro 1 Clean / Intro 2 Verzerrt /Refrain Verzerrt

e|-----------------------------------------------------------------------------------------------------------------|
b|-----------------------------------------------------------------------------------------------------------------|
G|-----------------------------------------------------------------------------------------------------------------|
D|--------------------------------------------------------------------------------------------------------------5--|
a|------4—6/8--6--*8--6--8-------4-6/8—6/8--6—6/5-------3--4—6/8-6--*8--6-*8-------6--5------6--6------------------|
D|--0----------------------------2----------------------------3------------------------------5----------3----------|


Strophe/Refrain
e|-----------------------------------------|
b|-----------------------------------------|
G|-----------------------------P.M.--------|
D|-------P.M.-----------------4---------4--|
a|---4-4-4-4-4------4--------2-X6-----2----|
D|---4-4-4-4-4------4----------------------|

Bridge
e|-----------------------------------------------|
b|-----------------------------------------------|
G|----------Variierter-Anschlag (abgedämft etc)--|
D|--6------ 6------------------------------------|
a|--4-------4------------------------------------|
D|-----------------------------------------------|


www.gilofarim.de
Related for Stop Lying tab