Song name
# A B C D E F G H I J K L M N O P Q R S T U V W X Y Z

Gilbert O'sullivan - Alone Again tab

Hey i looked for the solo and i didnt find it so i tabbed send me comments please 
MX

Standard Tuning

-----------9-9----------------9-9-----|
-7-9-11-11-----11---7-9-11-11-----11--|
--------------------------------------|
--------------------------------------|
--------------------------------------|
--------------------------------------|


-9-11-11/12-12-12-12--11-11-11-9-9-7-7---------------------|
----------------------------------------11-11-11-11-9-9-8--|
-----------------------------------------------------------|
-----------------------------------------------------------|
-----------------------------------------------------------|
-----------------------------------------------------------|


----------7-7-----------------7-7----|
-7h9p7-9------9---7h9p7-9-9-9-----9--|
-------------------------------------|
-------------------------------------|
-------------------------------------|
-------------------------------------|


-----------------------------------------------9-11-11-11/12--|
-7-9-11-11-11p9/7--7-9-11-11-11p9/7--7-9-11-11----------------|
--------------------------------------------------------------|
--------------------------------------------------------------|
--------------------------------------------------------------|
--------------------------------------------------------------|


-11-9-9----8-9------8-9-12-12-12-12-11-|
--------11-------11--------------------|
---------------------------------------|
---------------------------------------|
---------------------------------------|
---------------------------------------|


-9-9h11p9--7-7h9p7---------9-9-9-7--7h9-7---|
-------------------11-9-9-----------------9-|
--------------------------------------------|
--------------------------------------------|
--------------------------------------------|
--------------------------------------------|

-----------9-9----------------9-11-11-11/13---|
-7-9-11-11-----11---7-9-11-11-----------------|
----------------------------------------------|
----------------------------------------------|
----------------------------------------------|
----------------------------------------------|


deanroland@hotmail.com for comments
Tap to rate this tab
# A B C D E F G H I J K L M N O P Q R S T U V W X Y Z