Song name
# A B C D E F G H I J K L M N O P Q R S T U V W X Y Z

Giles Corey - Im Going To Do It tab

-------------------------------------------------------------------------------
			     Im Going To Do It - Giles Corey
-------------------------------------------------------------------------------
Tabbed by: mw
Email: killshot@hotmail.co.uk


e|------------------------------------------------------------------|
B|------0-------0-------0-------0-------0-------0-------0-------0---|
G|------------------------------------------------------------------|
D|----2---2---2---2---2---2---2---2---2---2---2---2---2---2---2---2-|
A|--3-------3-------3-------3-------2-------2-------2-------2-------|
E|------------------------------------------------------------------|

e|------------------------------------------------------------------|
B|------------------------------------------------------------------|
G|------------------------------------------------------------------|
D|------2-------2-------2-------2-------2-------2-------2-------2---|
A|----3---3---3---3---3---3---3---3---2---2---2---2---2---2---2---2-|
E|--3-------3-------3-------3-------0-------0-------0-------0-------|

     Em         D6add4
e|----0-----0-----0-----0----|
B|----0-----0-----0-----0----|
G|----0-----0-----0-----0----|
D|----2-----2-----4-----2----|
A|----2-----2-----5-----2----|
E|----0-----0-----0-----0----|

Just listen for the strumming pattern and repeat until the end

http://enemieslist.net/kvlt/artists/giles-corey/
Tap to rate this tab
# A B C D E F G H I J K L M N O P Q R S T U V W X Y Z