Song name
# A B C D E F G H I J K L M N O P Q R S T U V W X Y Z

Giles Corey - Buried Above Ground tab

-------------------------------------------------------------------------------
			     Giles Corey - Buried Above Ground
-------------------------------------------------------------------------------
Tabbed by: Trelt
Email: greggatrelt@gmail.com

Tuning: EADGBE (Standard)


First riff (Guitar)
e|------------------------------------------------------------------|
B|------------------------------------------------------------------|
G|------------------------------------------------------------------|
D|----3---/3-2-0-------3---/3-2-0-----3---/3-2-0-------3---3-3/5-0--|
A|--5---5--------3-3/5---5----------5---5--------3-3/5---5----------|
E|------------------------------------------------------------------|


Second riff (Trumpet)
e|------------------------------------------------------------------|
B|------------------------------------------------------------------|
G|--7--7--7-9-10-5--5--5-7-9-3--3--3-5-7-2--2--2-3-5----------------|
D|------------------------------------------------------------------|
A|------------------------------------------------------------------|
E|------------------------------------------------------------------|

e|------------------------------------------------------------------|
B|--------------1--1--1-3-5-6--6--6-5-3-1--1--1-3-5-----------------|
G|--0--0--0-2-3-----------------------------------------------------|
D|------------------------------------------------------------------|
A|------------------------------------------------------------------|
E|------------------------------------------------------------------|

e|------------------------------------------------------------------|
B|------------------------------------------------------------------|
G|--7--7--7-9-10-5--5--5-7-9-3--3--3-5-7-2--2--2-3-5----------------|
D|------------------------------------------------------------------|
A|------------------------------------------------------------------|
E|------------------------------------------------------------------|

e|------------------------------------------------------------------|
B|--------------1--1--1-3-5-6-5-6-8-6-8-11--10-15-------------------|
G|--0--0--0-2-3-----------------------------------------------------|
D|------------------------------------------------------------------|
A|------------------------------------------------------------------|
E|------------------------------------------------------------------|


Third riff (Guitar and trumpet)
e|------------------------------------------------------------------|
B|------------------------------------------------------------------|
G|------------------------------------------------------------------|
D|-----------3--5----------3--5----------3--5----------3--5---------|
A|--5--5-5-5------5--5-5-5------5--5-5-5------5--5-5-5-------5------|
E|------------------------------------------------------------------|

************************************

| /   slide up
| \   slide down
| h   hammer-on
| p   pull-off
| ~   vibrato
| +   harmonic
| x   Mute note
| b   Bend
| pb  Pre-bend
| br  Bend release
| pbr Pre-bend release
| brb Bend release bend

************************************
Tap to rate this tab
# A B C D E F G H I J K L M N O P Q R S T U V W X Y Z