Song name
# A B C D E F G H I J K L M N O P Q R S T U V W X Y Z

Giles Corey - Sleeping Heart tab

-------------------------------------------------------------------------------
			     Giles Corey - Sleeping Heart
-------------------------------------------------------------------------------
Tabbed by: Trelt
Email: greggatrelt@gmail.com

Tuning: EADGBe (Standard)

e|---------------------------------------------------------------------------|
B|---------------------------------------------------------------------------|
G|---------------------------------------------------------------------------|
D|------0---------------0-----------0-------------0-------------0-------0----|
A|----3---3---3---3---3---3-------3---3---3-----1---1---1-----3---3---1---1--|
E|--1-------1-------1-------1---1-------1-----1-------1-----1-------1--------|

e|---------------------------------------------------------------------------|
B|---------------------------------------------------------------------------|
G|---------------------------------------------------------------------------|
D|-----0-------------2-----------0-----------0-------0-------0---------------|
A|---3---3---3-----3---3-------1---1-------3---3---1---1---3---3---3---------|
E|-1-------1-----3-------3---1-------1---1-------1-------1-------1-----------|

e|---------------------------------------------------------------------------|
B|---------------------------------------------------------------------------|
G|---------------------------------------------------------------------------|
D|-----0-------------0-------------0-------0-------0-------------2-----------|
A|---3---3---3-----1---1---1-----3---3---1---1---3---3---3-----3---3---------|
E|-1-------1-----1-------1-----1-------1-------1-------1-----3-------3-------|

e|---------------------------------------------------------------------------|
B|---------------------------------------------------------------------------|
G|---------------------------------------------------------------------------|
D|-----0-----------0-------0-------0-----------------------------------------|
A|---1---1-------3---3---1---1---3---3---------------------------------------|
E|-1-------1---1-------1-------1-------1-------------------------------------|

e|---------------------------------------------------------------------------|
B|---------------------------------------------------------------------------|
G|-------3---------------2-------------3-------------2-----------------------|
D|-----3---3-----------3---3---------3---3---------3---3---------------------|
A|---1-------1-------3-------3-----1-------1-----3-------3-------------------|
E|-1-----------1---1-------------1-------------1-----------------------------|

e|---------------------------------------------------------------------------|
B|---------------------------------------------------------------------------|
G|-----------------3-----------5-----------3-------------2-------------2-----|
D|---0-3-0-------3---3-------3---3-------3---3---------3---3-----------------|
A|---------1---1-------1---3-------3---1-------1-----3-------3---1---3-------|
E|-1-----------------------------------------------1-----------1---1---------|
Tap to rate this tab
# A B C D E F G H I J K L M N O P Q R S T U V W X Y Z