Song name
# A B C D E F G H I J K L M N O P Q R S T U V W X Y Z

Giles Corey - No One Is Ever Going To Want Me tab

   A5    F5    F    D5
e|--x-----x----x-----x--|
B|--x-----x----x-----x--|
G|--x-----x----2-----7--|
D|--7-----3----3-----7--|
A|--7-----3----3-----5--|
E|--5-----1----1-----x--|

A5  F5  F  D5

I'm armed to the teeth
like a fucking animal
I ruin everything
I get my bony hands on

F5  D5  A5

and here we go, now
over the bridge of sighs
we will get a cross like christ, crucified
it's like a birth but it is in reverse
never gets better, always gets worse

A5  F5  F  D5

I'll gnaw at anything
new england is mine, and
it owes me a living

F5  D5  A5

step one
step two
step three
step four, we fall through the floor
fall through the floor
fall through the floor

e|------------------------------------------------------------------|
B|-3-5-3h5-5-3-5-3h5-5-3-5-3h5-5-3-5-3h5-5--------------------------|
G|-----------------------------------------2-2h4-2-2h4-2-2h4-2-2-0--|
D|------------------------------------------------------------------|
A|------------------------------------------------------------------|
E|------------------------------------------------------------------|

e|------------------------------------------------------------------|
B|-3-5-3h5-5-3-5-3h5-5-3-5-3h5-5-3-5-3h5-5--------------------------|
G|-----------------------------------------2-2h4-5-5-4-4-2-2-0------|
D|------------------------------------------------------------------|
A|------------------------------------------------------------------|
E|------------------------------------------------------------------|

Am  F  Dm  Am 

I wanna feel like I feel when I'm asleep
I wanna feel I wanna feel I wanna feel...
Sway! Sway! Sway! Sway!
Tap to rate this tab
# A B C D E F G H I J K L M N O P Q R S T U V W X Y Z