Song name
# A B C D E F G H I J K L M N O P Q R S T U V W X Y Z

Giles Giles And Fripp - Erudite Eyes tab

Erudite Eyes by Giles, Giles & Fripp
Transcribed by InsaneOve
standard tuning : E A D G B e


Intro:

-0-----------0--1--5--3-------------------------------------------------|-10-|
----3--1--3--------------6--5--3----------------------------------------|-10-|
----------------------------------5--4--------2-----1--4--2--4--7--6--7-|-10-|
-------------------3--------------------5--3-----3----------------------|----|
-3--------2-----------------3-----------------------------------------5-|----|
-------------------------------------3--------1-----0-----1--3-----5----|----|


Verse 1:

  You whisper  by with your  mind in your  eye

-|1-----------|-------------|0------------|1----------|
-|3-----------|-------------|1------------|3----------|
-|2-----------|-------------|0------------|2----------|
-|0-----------|-------------|2------------|0----------|
-|------------|-------------|-------------|-----------|
-|------------|-------------|-------------|-----------|
  Dm                         C             Dm

  Seeing    nothing  that's   there but the  bones of the  bare dying

--1--------|-----------------|--------------|-6-----------|-------------|
--3--------|-3-------3-------|-0-----0------|-6-----------|-------------|
--2--------|-2-------2-------|-0-----0------|-7-----------|-9-----------|
--0--------|-----------------|--------------|-------------|-10----------|
-----------|-1-------1-------|--------------|-------------|-10----------|
-----------|-----------------|-3-----3------|-6-----------|-8-----------|
  Dm                           G     G        A#            C


   thoughts That would  stare in your        eyes

--|-10-----------------|-----------------|
--|-10-----------------|-3---------------|
--|-10-----------------|-3---------------|  REPEAT INTRO
--|--------------------|-----------------|
--|--------------------|-1---------------|
--|-10-----------------|-----------------|



Verse 2:


  I know nice  men who have  nothing to    say

-|1-----------|-------------|0------------|1----------|
-|3-----------|-------------|1------------|3----------|
-|2-----------|-------------|0------------|2----------|
-|0-----------|-------------|2------------|0----------|
-|------------|-------------|-------------|-----------|
-|------------|-------------|-------------|-----------|
  Dm                         C             D

  Except    "What a  nice     day,   May I   say that   today's a nice

--1--------|-----------------|--------------|-6--------|--------------|
--3--------|-3-------3-------|-0-----0------|-6--------|--------------|
--2--------|-2-------2-------|-0-----0------|-7--------|-9------------|
--0--------|-----------------|--------------|----------|-10-----------|
-----------|-1-------1-------|--------------|----------|-10-----------|
-----------|-----------------|-3-----3------|-6--------|-8------------|
  Dm                           G     G        A#         C


   day Cos I've   nothing to  say

--|-10----------|-6---------|-10---------------|
--|-10----------|-6---------|-10---------------|
--|-10----------|-7---------|-10---------------|
--|-------------|-----------|------------------|
--|-------------|-----------|------------------|
--|-10----------|-6---------|-10---------------|
    Dm            A#          Dm


Refrain:

 But the  peace of mind is  peace of  mind,and   eye,a   gift to  all

---------|--------|--------|--------|----------|-------|---------|-1-----|
---------|-3------|-10-----|-3------|-1--------|-3-----|-1-------|-3-----|
---------|-2------|-9------|-2------|-0--------|-3-----|-0-------|-2-----|
---------|-3------|-10-----|-3------|-2--------|-0-----|-2-------|-0-----|
---------|-1------|-8------|-1------|-0--------|-1-----|-0-------|-------|
---------|--------|--------|--------|----------|-------|---------|-------|

 But the  things I  see I   see with  mind And  don't  observe with  eyes

---------|--------|--------|--------|----------|------|-------------|-1-----|
---------|-3------|-10-----|-3------|-1--------|-3----|-1-----------|-3-----|
---------|-2------|-9------|-2------|-0--------|-3----|-0-----------|-2-----|
---------|-3------|-10-----|-3------|-2--------|-0----|-2-----------|-0-----|
---------|-1------|-8------|-1------|-0--------|-1----|-0-----------|-------|
---------|--------|--------|--------|----------|------|-------------|-------|

Solo:


Clean Guitar

--------------------------------------------------------------------|
-3--3--3~~3h6--3h6--8h10--8h10--8h10p8\6------5---------------------|
-----------------------------------------7--5---7h9p7\5--7----------|
--------------------------------------------------------------------|
--------------------------------------------------------------------|
--------------------------------------------------------------------|

Lead Guitar

--15/17--15/17--15h17p15\13-----------------------------------------|
-----------------------------15--13--17--15h17p15/13h15-------------|
--------------------------------------------------------------------|
--------------------------------------------------------------------|
--------------------------------------------------------------------|
--------------------------------------------------------------------|


Verse 3 = Repeat Verse 2

Refrain

Outro...


----------------
Tablature Legend
----------------
 h  - hammer-on
 p  - pull-off
/\  - slide
~   - vibrato

http://it.wikipedia.org/wiki/The_Cheerful_Insanity_of_Giles,_Giles_%26_Fripp
Tap to rate this tab
 
# A B C D E F G H I J K L M N O P Q R S T U V W X Y Z