Song name
# A B C D E F G H I J K L M N O P Q R S T U V W X Y Z

Gill Vince - Amy tab

Tabbed by: Myles Rosenthal
Email: coolmyles101@hotmail.com

Intro: (1st guitar: repeats)

e|----12-|
B|----10-|
G|-------|
D|-------|
A|-12----|
E|-------|

Intro: (2nd guitar)

e|-------------------2----------------------------------------------2-5-------------3-2---3-2--|
B|---------------2-5---5-2-------------------2------------------2-5---2-----------2-3-3-2-3-3--|
G|-------2-2-4-2-----------4-2-------2-2-4-2---4-4------2-2-4-2---------2/4-2---2-2-0-2-2-0-2--|
D|-1/2-4-----------------------1/2-4---------------1/2-4----------------------4---2-0---2-0----|
A|----------------------------------------------------------------------------------2-----3----|
E|----------------------------------------------------------------------------------3-----3----|

Verses: (Chords)

e|---2---2------|
B|---3-1-3-1----|
G|-2-2-0-2-0-1--|
D|-2---2---2-2--|
A|-2---3---3-2--|
E|--------------|


Chorus: (chords)

e|---3-2---3-2------------|
B|-2-3-3-2-3-3-1----------|
G|-2-0-2-2-0-2-2-1--------|
D|-2-0---2-0---2-2--------|
A|---3-----2-----2--------|
E|---3-----3--------------|
Tap to rate this tab
 
# A B C D E F G H I J K L M N O P Q R S T U V W X Y Z