Guitaretab - guitar tabs
Song name
# A B C D E F G H I J K L M N O P Q R S T U V W X Y Z

Gillian Welch - One More Dollar tab

Artist: Gillian Welch
Song: One More Dollar
Album: Revival
Tabbed by: Don Tago
Email: recebedou@yahoo.com

Chords Used:
   EADGBe
A: 002220
Bm:2244--
D: 000232
G: 320033

Standard Tuning: (Capo III) [all tabs and chords relative to capo]

Intro:
   Bm       A      G           A       D
e|-------------------------------------2-----2-|
B|------3---2---3---2---3----------3-----3-----|
G|--------2---2---2---2---2----------------2---|
D|--2/4----------------------0-2/4---0---------|
A|---------------------------------------------|
E|---------------------------------------------|

Verse 1:
D               A           D          G          D
A long time ago   I left my home for a job in the fruit trees
                         A                D
But I missed those hills   with the windy pines
      G              D
Their song seemed to suit me
                   A     D               G       D
So I sent my wages to my home, said we'd soon be together
                      A             D
For the next good crop would pay my way
        G          D
And Id come home forever

Chorus chords:
Bm  A        G       A           D
One-hun more dime to show for my day
Bm  A        G          A         D
One-hun more dollar and I'm on my way             
       Bm    A     G            A          D
When I reach those hills, boys, I'll never roam
Bm  A    G          A         D
One more dollar and I'm going home

Verse 2: use verse 1 chords
No work said the boss at the bunkhouse door
There's a freeze on the branches
So when the dice came out at the bar downtown
I rolled and I took my chances

Chorus:
One-hun more dime to show for my day
One-hun more dollar and I'm on my way             
When I reach those hills, boys I'll never roam
One more dollar and I'm going home
[ Tab from: http://www.guitaretab.com/g/gillian-welch/180950.html ]
SOLO:
           Bm A   G       A          D     
e|-------5---------------------------------2--|
B|-----3---7----5-3---5-3-2---0------5/3------|
G|-2-4----------------------2---2--2-----2----|
D|--------------------------------------------|
A|--------------------------------------------|
E|--------------------------------------------|

      Bm  A     G                  A         D
e|---2/10-9-----------------------------5---------|
B|-----------1212b-12b-----------5-6h7---6--6----|
G|-2--------------------7-7-----7--------------7--|
D|----------------------------7-------------------|
A|------------------------------------------------|
E|------------------------------------------------|

       Bm     A    G                A       D
e|-9------7------------------------------------------------|
B|---10------------8--7-5---5------------------------------|
G|----------9-7--7--------7---7-6---------------------6-7-9-|
D|--------------------------------7---5-7-5-4---5-7-9-------|
A|-------------------------------------------------------|
E|-------------------------------------------------------|
    Bm    A    G         A               D
e|---------------------------------------------2-------|
B|--5-5-5-7--3-3--5-5--3-2-------------------3---3-----|
G|--6-6-6-7--4-4--6-6--4-2--2-2-2-2-0------2-------2---|
D|------------------------------------2--0-------------|
A|-----------------------------------------------------|
E|-----------------------------------------------------|



Verse 3: use verse 1 chords
A long time ago I left my home
Just a boy passing twenty
Could you spare a coin and a Christian prayer
For my luck has turned against me

Chorus:
One-hun more dime to show for my day
One-hun more dollar and I'm on my way             
When I reach those hills, boys I'll never roam
One more dollar and I'm going home
One more dollar, boys, I'm going home
Related for One More Dollar tab