Song name
# A B C D E F G H I J K L M N O P Q R S T U V W X Y Z

Gillian Welch - One Little Song tab

-------------------------------------------------------------------------------
                                              ONE LITTLE SONG - Gillian Welch
-------------------------------------------------------------------------------
Tabbed by: cmmdrsquid
E-mail: cmmdrsquid@gmail.com

This is what I play and it sounds close. If anyone has something more accurate
please let me know.

  G
e|--------------------3----------|--------------------3----------|
B|0------------------------------|0------------------------------|
G|------------0------------------|------------0------------------|
D|--------0---------------0------|--------0---------------0------|
A|-------------------------------|-------------------------------|
E|3---------------3--------------|3---------------3--------------|
  There's gotta be a              song left to

  G
e|--------------------3----------|--------------------3----------|
B|3------------------------------|3------------------------------|
G|------------0------------------|------------0------------------|
D|--------0---------------0------|--------0---------------0------|
A|-------------------------------|-------------------------------|
E|3---------------3--------------|3---------------3--------------|
  sing

  G
e|--------------------3----------|--------------------3----------|
B|0------------------------------|3------------------------------|
G|------------0------------------|------------0------------------|
D|--------0---------------0------|--------0---------------0------|
A|-------------------------------|-------------------------------|
E|3---------------3--------------|3---------------3--------------|
  Cause everybody can't of        thought of every-

  D
e|2-------------------2----------|2-------------------2----------|
B|------------3------------------|------------3------------------|
G|--------2---------------2------|--------2---------------2------|
D|0------------------------------|0------------------------------|
A|----------------0--------------|----------------0--------------|
E|-------------------------------|-------------------------------|
  thing

  Am
e|--------------------0----------|--------------------0----------|
B|1------------------------------|1------------------------------|
G|------------2------------------|------------2------------------|
D|--------2---------------2------|--------2---------------2------|
A|0------------------------------|0------------------------------|
E|----------------0--------------|----------------0--------------|
  One little song that            ain't been sung
  One little note that            ain't been used

  Am
e|--------------------0----------|--------------------0----------|
B|1------------------------------|1------------------------------|
G|------------2------------------|------------2------------------|
D|--------2---------------2------|--------2---------------2------|
A|0------------------------------|0------------------------------|
E|----------------0--------------|----------------0--------------|
  one little rag that             ain't been rung out
  one little word                 ain't been abused

  G
e|--------------------0----------|--------------------0----------|
B|0------------------------------|3------------------------------|
G|------------0------------------|------------0------------------|
D|--------0---------------0------|--------0---------------0------|
A|-------------------------------|-------------------------------|
E|3---------------3--------------|3---------------3--------------|
  completely yet                                      Gotta
  a thousand times                                    In a

  D7
e|2-------------------2----------|2-------------------2----------|
B|------------1------------------|------------1------------------|
G|--------2---------------2------|--------2---------------2------|
D|0------------------------------|0------------------------------|
A|----------------0--------------|----------------0--------------|
E|-------------------------------|-------------------------------|
  little left
  thousand rhymes

  C
e|0------------------------------|0------------------------------|
B|--------------------1----------|--------------------1----------|
G|------------0------------------|------------0------------------|
D|--------2---------------2------|--------2---------------2------|
A|3------------------------------|3------------------------------|
E|----------------3--------------|----------------3--------------|
  One little drop of              falling rain

  Bm
e|--------------------2----------|--------------------2----------|
B|3------------------------------|3------------------------------|
G|------------4------------------|------------4------------------|
D|--------4---------------4------|--------4---------------4------|
A|2------------------------------|2------------------------------|
E|----------------2--------------|----------------2--------------|
  One little chance to            try again

  Am
e|-------------------------------|-------------------------------|
B|1-------------------1----------|1-------------------1----------|
G|------------2------------------|------------2------------------|
D|--------2---------------2------|--------2---------------2------|
A|0------------------------------|0------------------------------|
E|----------------0--------------|----------------0--------------|
  One little bird that            makes it home

  G
e|--------------------3----------|-------------------------------|
B|0------------------------------|0------------------------------|
G|------------0------------------|-------------------------------|
D|--------0---------------0------|-------------------------------|
A|-------------------------------|----------------0-------2------|
E|3---------------3--------------|3-------3----------------------|
  now and then

  C
e|0------------------------------|0------------------------------|
B|--------------------1----------|--------------------1----------|
G|------------0------------------|------------0------------------|
D|--------2---------------2------|--------2---------------2------|
A|3------------------------------|3------------------------------|
E|----------------3--------------|----------------3--------------|
  One little piece of             endless sky

  Bm
e|--------------------2----------|--------------------2----------|
B|3------------------------------|3------------------------------|
G|------------4------------------|------------4------------------|
D|--------4---------------4------|--------4---------------4------|
A|2------------------------------|2------------------------------|
E|----------------2--------------|----------------2--------------|
  One little taste                cherry pie

  Am
e|-------------------------------|-------------------------------|
B|1-------------------1----------|1-------------------1----------|
G|------------2------------------|------------2------------------|
D|--------2---------------2------|--------2---------------2------|
A|0------------------------------|0------------------------------|
E|----------------0--------------|----------------0--------------|
  One little week in              paradise

  D7
e|2-------------------2----------|2-------------------2----------|
B|------------1------------------|------------1------------------|
G|--------2---------------2------|--------2---------------2------|
D|0------------------------------|0------------------------------|
A|----------------0--------------|----------------0--------------|
E|-------------------------------|-------------------------------|
  and I start thinking
Tap to rate this tab
# A B C D E F G H I J K L M N O P Q R S T U V W X Y Z