Song name
# A B C D E F G H I J K L M N O P Q R S T U V W X Y Z

Gillian Welch - One Little Song tab

Gillian Welch - One Little Song


Tab by Avi Yaacov
Israel, September 7, 2013


This is an incredibly beautiful song.

I hope the following tab gives anyone who wishes to play it a good idea how - wasn’t 
aiming for it to be an exact copy of what’s played, she plays it from the heart, we should 
all hope to do the same :)

Enjoy!



Verse picking chords are basically:

e|---3--3---|---3---|---3--3---|---2---|
B|---1--0---|---1---|---1--0---|---1---|
G|---0--0---|---2---|---0--0---|---2---|
D|---0--0---|---0---|---0--0---|---0---|
A|----------|---0---|----------|-------|
E|---3--3---|-------|---3--3---|-------|


D7 is at times, at the end of the verse, is played as regular D major.


    ~ bass, thumb ~
e|-----------------|-----3----------------3----|
B|-----------------|-----0-------0h1--1-----1--|
G|-----------------|-------------0------0------|
D|-----0-----0-----|-----0-----0---------------|
A|-----------------|---------------------------|
E|--3-----3--------|--3-----3------------------|


e|-----3----------------3--------|
B|-----0-------0h1--1-------1p0--|
G|-------------0------0---0------|
D|-----0-----0-------------------|
A|-------------------------------|
E|--3-----3----------------------|




e|------------------2----|
B|----2-----------1---1--|
G|--------------2--------|
D|----0---0--------------|
A|--0---0----0-----------|
E|-----------------------|





Chorus

    C                              Bm
e|---------0-----0------0-----0--|-----2-------2------2-----2--|
B|---------1-----1------1-----1--|-----3-------3------3-----3--|
G|---------0-----0------0-----0--|-----4-------4------4-----4--|
D|-------------------------------|-----------------------------|
A|--0-2-3------------3-----------|--2--------------2-----------|
E|------------3------------3-----|---------2-------------2-----|

   Am7                         G
e|-----0-----0-----0-----0--|------3-----3-----3------|
B|-----1-----1-----1-----1--|------0-----0-----0------|
G|-----0-----0-----0-----0--|------0-----0-----0------|
D|--------------------------|---------0---------------|
A|--0-----------0-----------|--------------------0-2--|
E|--------0-----------0-----|---3-----------3---------|


    C                              Bm
e|-----0-----0------0-----0--|-----2-------2------2-----2--|
B|-----1-----1------1-----1--|-----3-------3------3-----3--|
G|-----0-----0------0-----0--|-----4-------4------4-----4--|
D|---------------------------|-----------------------------|
A|--3------------3-----------|--2--------------2-----------|
E|--------3------------3-----|---------2-------------2-----|


   Am7                         D7
e|-----0-----0-----0-----0--|----------2----------------2--|
B|-----1-----1-----1-----1--|------1-----1----(1)-----1----|
G|-----0-----0-----0-----0--|----2---2-----(2)------2------|
D|--------------------------|--0------------------0--------|
A|--0-----------0-----------|------------------------------|
E|--------0-----------0-----|------------------------------|
Tap to rate this tab
# A B C D E F G H I J K L M N O P Q R S T U V W X Y Z