Song name
# A B C D E F G H I J K L M N O P Q R S T U V W X Y Z

Gillian Welch - Ill Fly Away tab

-------------------------------------------------------------------------------
                             Ill Fly Away  Gillian Welch
-------------------------------------------------------------------------------
Tabbed by:alexagg       
Tuning:Standard

Capo - 6
INTRO
e|---------------------------------------------------------------------------|
B|--0-------------------0--------0--1--0-------------------------------------|
G|-----0---------0---------2--------------0----------------------------------|
D|-----------0---------------------------------------------------------------|
A|---------------------------------------------------------------------------|
E|---------------------------------------------------------------------------|
     D     D        U  D  U      D    D                D  D      U D U
e|---------------------------------------------------------------------------|
B|---1-----1--------1--1--1------1----1----------------3--3------3-3-3-------|
G|---0-----0--------0--0--0------0----0----------------0--0------0-0-0-------|
D|---0H2---2--------2--2--2------0H2--2------0---0-----0-0------0-0-0-------|
A|---3-----3--------3--3--3------3----3----3---3-------2--2------2-2-2-------|
E|---------------------------------------------------------------------------|


e|---------------------------------------------------------------------------|
B|--------------------------0-----------------0--1--0------------------------|
G|------------0-------0--------0------0---2------------0---------------------|
D|---0-----0-----0-----------------0-----------------------------------------|
A|---------------------------------------------------------------------------|
E|---------------------------------------------------------------------------|

     D   U   U     D  D      
e|---3---3---3-----3--3------------------------------------------------------|
B|---0---0---0-----0--0-------1--1P0----0------------------------------------|
G|---0---0---0-----0--0-------2--2P0----0------------------------------------|
D|---0---0---0-----0--0-------0------4---------------------------------------|
A|---2---2---2-----2--2------------------------------------------------------|
E|---3---3---3-----3--3------------------------------------------------------|

VERSE 1:
G                                          C        G
Some glad morning when this life is o'er, I'll fly away
G                              Em   G    D   G
To a home on God's celestial shore, I'll fly away

CHORUS:
G                       G         G
I'll fly away, O glory, I'll fly away
G            Em                    G   D   G
When I die, hallelujah, by and by I'll fly away

VERSE 2:
G                                         G    C       G
When the shadows of this life have grown, I'll fly away
G                                Em      G    D   G
Like a bird from prison bars has flown, I'll fly away

CHORUS:

VERSE 3:
G                                     G    C   G
Just a few more weary days, and then, I'll fly away
G                              Em      G    D    G
To a land where joys shall never end, I'll fly away

CHORUS:

************************************

| /   slide up
| \   slide down
| h   hammer-on
| p   pull-off
| ~   vibrato
| +   harmonic
| x   Mute note
| b   Bend
| pb  Pre-bend
| br  Bend release
| pbr Pre-bend release
| brb Bend release bend

************************************
Tap to rate this tab
# A B C D E F G H I J K L M N O P Q R S T U V W X Y Z