Song name
# A B C D E F G H I J K L M N O P Q R S T U V W X Y Z

Gimmel - Muijaa Seuraavaa tab

intro/solo
|----5------5-----5-----5---5-----5-----5-----5------|
|-2-----2-3---3-2---2-3---3----2----2-3---3-2---2-0--|
|----------------------------------------------------| 2x
|----------------------------------------------------|
|----------------------------------------------------|
|----------------------------------------------------|

|-------------------------------------------|
|-------------------------------------------|
|-------------------6--------------------6--|
|-6-6-6-7--7-7-9-9--4--6-6-6-7--7-7-9-9--4--|
|-4-4-4-5--5-5-7-7-----4-4-4-5--5-5-7-7-----|
|-------------------------------------------|

|----------------------------------------------------|
|----------------------------------------------------|
|-6-6-6-6--6-6-6-------------------------------------|
|-4-4-4-4--4-4-4--9-9--9-9-----[solo]----------------|
|-----------------7-7--7-7---------------------------|
|----------------------------------------------------|
Tap to rate this tab
# A B C D E F G H I J K L M N O P Q R S T U V W X Y Z