Song name
# A B C D E F G H I J K L M N O P Q R S T U V W X Y Z

Gimp - One Tin Soldier tab

-----------------------------------------------------------------------------
			     ONE TIN SOLDIER - Gimp
-----------------------------------------------------------------------------
Tabbed by: Postmaster98
Email: stackhouse.jordan@gmail.com

Tuning: Standard (EADGBe)

For those who don't know, Gimp was the band Tomas Kalnoky, lead singer of Streetlight 
Manifesto, played in during his early days. They only had one album, because Tomas "got 
bored of punk" and soon moved on to Catch 22.

Intro
e|-----------------------|
B|-----------------------|
G|-----------------------|
D|--3-3-33-3-1-1-1-3-33--| x3
A|--5-5-55-5-3-3-3-5-55--|
E|-----------------------|

After 3rd time...
e|---------------------|
B|---------------------|
G|---------------------|
D|-3-33------3-33-33---|
A|-5-55-3-33-5-55-55---|
E|------5-55-----------|

Verse
e|------------------------------------------------------------------|
B|------------------------------------------------------------------|
G|------------------------------------------------------------------|
D|-3-33-33---------2-22-22-----------------3-33-33------------------| x2
A|-5-55-55-3-33-33-0-00-00-2-22-22-1-11-11-5-55-55-1-11-11-3-33-33--|
E|---------5-55-55---------0-00-00-3-33-33---------3-33-33-5-55-55--|

After 2nd time...
e|----------------|
B|----------------|
G|----------------|
D|-333333333------|
A|-555555555--3-1-|
E|------------5-3-|

Chorus
e|---------------------------------|----------------------------------|
B|---------------------------------|----------------------------------|
G|---------------------------------|----------------------------------|
D|-3-33-33-----------------3-33-33-|-3-33-33--------------------------|
A|-5-55-55-3-33-33-5-55-55-5-55-55-|-5-55-55-3-33-33-5-55-55-7-77-77--|
E|---------5-55-55-7-77-77---------|---------5-55-55-7-77-77-9-99-99--|

After you play the first part of the chorus the 2nd time, play...
e|---------------------|
B|---------------------|
G|---------------------|
D|-3-33-33-------------|
A|-5-55-55-3-let-ring--|
E|---------5-let-ring--|

Post-Chorus
e|----------------------|
B|----------------------|
G|----------------------|
D|-3-3-33-3-1-1-1-3-33--| x3
A|-5-5-55-5-3-3-3-5-55--|
E|----------------------|

After 3rd time...
e|---------------------|
B|---------------------|
G|---------------------|
D|-3-33------3-33-33---|
A|-5-55-3-33-5-55-55---|
E|------5-55-----------|

Verse

Chorus

Post-Chorus

************************************

| /   slide up
| \   slide down
| h   hammer-on
| p   pull-off
| ~   vibrato
| +   harmonic
| x   Mute note
| b   Bend
| pb  Pre-bend
| br  Bend release
| pbr Pre-bend release
| brb Bend release bend

************************************
Tap to rate this tab
 
# A B C D E F G H I J K L M N O P Q R S T U V W X Y Z