Song name
# A B C D E F G H I J K L M N O P Q R S T U V W X Y Z

Gin Blossoms - As Long As It Matters tab

Song: As long as it Matters
Band: Gin Blossoms
Album: Congratulations I'm Sorry

Intro solo
              (drums)
e|-------3---3--------3-3-3-3-----------------------------|
b|-------3---3--------3-5-5-3-----------------------------|
g|-0h2p0---0----------------------4-5-5-4-2---------------|
d|--------------------------------------------------------|
a|--------------------------------------------------------|
E|--------------------------------------------------------|

e|------------------------3-------------------------------|
b|------------------------3-------------------------------|
g|-2h4-4-4p2-2-0----0--/4---------------------------------|
d|---------------0h2--------------------------------------|
a|--------------------------------------------------------|
E|--------------------------------------------------------|

e|-7-7-7/5-5-5/3-3-3/2-2-2p0-0-0-2-0---------------------|
b|-7-7-7/5-5-5/3-3-3/2-2-2p0-0-0-2-0--12-----10----------|
g|------------------------------------11-x7--9-----------|
d|-------------------------------------------------------|
a|-------------------------------------------------------|
E|-------------------------------------------------------|

Middle solo

e|--------------------------------------------------------------|
b|--------------------------------------------------------------|
g|--0-11b12r11--0-11b12r11-0-11b12r11-0-----5-7b----------------|
d|--------------------------------------5h7-------7p5-----------|
a|----------------------------------------------------7p5-------|
E|-------------------------------------------------------7p5-3--|

             bend          gradual release
              |------------|-------------------------------|
e|---------------------------------------------------------|
b|-----------------12----12--------------------------------|
g|-12-12-14-14b-14----14----14-14-14-14-12-----------------|
d|---------------------------------------------------------|
a|---------------------------------------------------------|
E|---------------------------------------------------------|

Outro solo

e|--------------------------------------------------------|
b|--------------------------------------------------------|
g|-----7-7-9-7-----------7-7-9-7--------------------------|
d|-7-9-9-9-9-9-9-7-----7-9-9-9-9-9-9-7--------------------|
a|-----------------10------------------10---10------------|
E|--------------------------------------------------------|

e|-----------------------------------------------------------|
b|------------------------3---------------3---------------3--|
g|--------------0-2-0-2h4---4-4p2p0-0-2h4---4-4p2p0-0-2h4----|
d|--2h3h5-2-2-2----------------------------------------------|
a|-----------------------------------------------------------|
E|-----------------------------------------------------------|

e|-------------------------------------3-3---------------3-3-------------|
b|-----3---------------3---------------3-3-3h5-5p3---3---3-3-3h5-5p3---3-|
g|-2h4---4-4p2p0-0-2h4---4-4p2p0-0-2h4-------------4-----------------4---|
d|-----------------------------------------------------------------------|
a|-----------------------------------------------------------------------|
E|-----------------------------------------------------------------------|
Tap to rate this tab
# A B C D E F G H I J K L M N O P Q R S T U V W X Y Z