Song name
# A B C D E F G H I J K L M N O P Q R S T U V W X Y Z

Gin Blossoms - Till I Here It From You tab

hi!! This is my first time to pass a tabs this not so accurate please try to 
forget to comment


e|--------------------------------------------5-66/9-9/12-9-7/9\7------------|
B|--------9/10-9-5^--5---5--------5-5\2-5----5-------------------10-9-10-9-7-|
G|-------------------4h6-6-2-4/6--6-------6-6-------------------------------9|
D|---------------------------------------------------------------------------|
A|2--4/7---------------------------------------------------------------------|
E|---------------------------------------------------------------------------|

e|--------------------------------------|
B|-----------------------------------9--|
G|-------9----------------------9-10----|
D|---7-9---9h11-9-7-7h9-7---7-9---------|
A|-9----------------------9-------------|
E|--------------------------------------|

hehehehehe ty for your time


- b3nchz@yahoo.com -
Tap to rate this tab
 
# A B C D E F G H I J K L M N O P Q R S T U V W X Y Z