Guitaretab - guitar tabs
Song name
# A B C D E F G H I J K L M N O P Q R S T U V W X Y Z

Gin Blossoms - Until I Hear It From You tab

Gin Blossoms - 'Til I Hear It From You

This is my "The First Tab". It's one of my favorite songs of all time and I never
really got a tab that sounded right. So I sat down and tabbed this out. I think it
most the parts and it sounds "preeeeettty" much right. sounds even better when you
jam. Enjoy it. =)

~intro~
there are two guitars at the start one with distortion, the other without

(guitar with distortion)
strike on every 1st beat of the intro and let ring
E |--------|--------|--------|--------|
B |--------|--------|--------|--------|
G |--------|--------|--------|--------|
D |-7------|-7------|-7-6----|--------|
A |--------|---9----|--------|-7------|
E |--------|--------|--------|--------|
    1 2 3 4  1 2 3 4  1 2 3 4  1 2 3 4


E |--------|--------|---------|---------|--------|
B |--------|--------|---------|---------|--------|
G |--------|--------|---------|--=------|--------|
D |-7------|--------|-5/9-----|-9/11----|-/5-----|
A |--------|-9------|---------|---------|--------|
E |--------|--------|---------|---------|--------|
    1 2 3 4  1 2 3 4  1 2 3 4   1 2 3 4   1 2 3 4
                                         (drums)

The second guitar goes like that

CAPO ON 2ND
E|----3-----2-0------|
B|------3-------3----|
G|--0-----0-------0--|
D|-------------------|
A|-------------------|
E|-------------------|

E|----3-----2-0------|
B|------3-------3----|
G|--------0-------0--|
D|--2----------------|
A|-------------------|
E|-------------------|

E|----2-----0-----0--|
B|------3-----3------|
G|--------4-----4----|
D|--4----------------|
A|-------------------|
E|-------------------|

E|----2-----0-----0--|
B|------3-----3------|
G|--------2-----2----|
D|--0----------------|
A|-------------------|
E|-------------------|

~VERSE~(someone tabbed it out already and I'm lazy to double check coz it's sounds
pretty much the same as what I figured)

(there's one guitar plucking and one strumming)

A        F#m                         C#m
I didn't ask, you shouldn't have told me
      E
but first I'd laugh right now
A               F#m                C#m
I'm sinking in it fast, whatever you sold me
      E
well baby,
                   D                E
 I don't want to take advice from fools
		 D              E
 I just figured everything is cool
         A    A/G#m   F#m    E     D
Until I hear it from you (hear it from you)

*There's a second guitar riff here that goes like:

-riff-
E|-----------------|
B|-----------------|
G|---9999𧯞------|
D|---xxxx-x-x------|
A|---7777-5-4------|
E|-----------------|
then back to:


It gets hard, the memory's faded
who gets what they say
it's likely they're just jealous and jaded
well maybe

I don't want to take advice from fools
I just figured everything is cool
Until I hear it from you (hear it from you) *riff
Until I hear it from you (hear it from you) *riff

[ Tab from: http://www.guitaretab.com/g/gin-blossoms/6996.html ]
E               A
I can't let it get me up
 D                B
or break up my train of thought
 E                  A
as far as I know nothing's wrong
G            D          A
but still I hear it from you

~solo~
E |------------------------------------------------|
B |------------------10-9--------------------------|
G |-----------------------9------------------------|
D |----------------------------911--9----9h11-11--|
A |----------7-7-----------------------12----------|
E |----5-5/9---------------------------------------|

E ------------------------12-------------------------|
B -----------------10-12b----12b-12b-10/9-10-9-------|
G -------9-9----11-----------------------------11-9--|
D --9/11---------------------------------------------|
A ---------------------------------------------------|
E ---------------------------------------------------|

E ------------------------------------------|
B ------------------------------------------|
G --------------9---------------------------|
D --------7--9-------11/9--7/9----------79-|
A --9--9--------------9/7--5/7----9--9------|
E ------------------------------------------|

This part you strum it really fast while muting the d string
E --------------------------|
B --------------------------|
G --9(x8)-11(x8)-13(x16)----|
D --x------x------x---------|
A --7(x8)-9(x8)-11(x16)---|
E --------------------------|


still thinking about not living without it
else I'd look it in    [*play the first 3 bars of the intro here*]
still talking about not stepping around it
well maybe


I don't want to take advice from fools
I just figured everything is cool
Until I hear it from you (hear it from you) *riff
Until I hear it from you (hear it from you) *riff
Until I hear it from you (hear it from you) *riff

                      A    F#m    C#m    E
 'til I hear it from you, oh no

E|--------------------------|
B|--------------------------|
G|--------------------------|
D|--9--11--9----9h11--11----|
A|-----------12-------------|
E|--------------------------|

                      A    F#m    C#m    E
 'til I hear it from you, oh no   *use above riff

                      A    F#m    C#m     E
 'til I hear it from you  (won't take advice from fools,
			   thinking everything is cool)
                      A    F#m    C#m     E
 'til I hear it from you  (won't take advice from fools,
			   thinking everything is cool)

 'til I hear it from you


there's a guitar part here too that goes like:
E|--12-12-129-10-----------|
B|----------------10--------|
G|-------------------9------|
D|--------------------------|       (fade out)
A|--------------------------|
E|--------------------------|


it's all messed up...so sorry I'm not very good at arrangementand stuff...sorry for
the mistakes, it is my first tab after all=S*blink*...aigghtt=)...but please
send comments to me at: robotwoman@hotmail.com

                      your neighborhood friendly,
                            ~robotwoman~
Related for Until I Hear It From You tab