Song name
# A B C D E F G H I J K L M N O P Q R S T U V W X Y Z

Giniling Festival - Titsers Enemy No 1 tab

Intro: Drums and guitars, then. . .

Verse:
	   0:10
G|-------|-----------|-----------|-----------|-----------|
D|-------|-----------|------22---|-----------|------22---|
A|---7\5-|------22---|-0-44----4-|------22---|-0-44----4-|
E|-------|-0-44----4-|-----------|-0-44----4-|-----------|

G|-----------|---------|
D|-----------|---------|
A|------22---|-00-22---|
E|-0-44----4-|-------0-|

Verse:
0:20
G|-----------|-----------|-----------|-----------|
D|-----------|------22---|-----------|------22---|
A|------22---|-0-44----4-|------22---|-0-44----4-|
E|-0-44----4-|-----------|-0-44----4-|-----------|

G|-----------|----------------|
D|-----------|----------------|
A|------22---|-00-22----------|
E|-0-44----4-|-------00-00-00-|

Chorus:
0:30
G|------------|-------------|
D|------------|-------------|
A|------------|-77-55-------|
E|--3-33-5-55-|-------77-55-| 3x

G|------------|-------------------|
D|------------|-------------------|
A|------------|-------------------|
E|--3-33-5-55-|-77777777-77777777-|

Pre-Verse:
0:43
G|---|
D|---|
A|---|
E|-0-|

Verse:
0:49
G|------|-----------|-----------|-----------|-----------|
D|------|-----------|------22---|-----------|------22---|
A|--7\5-|------22---|-0-44----4-|------22---|-0-44----4-|
E|------|-0-44----4-|-----------|-0-44----4-|-----------|

G|------------|---------|
D|------------|---------|
A|-------22---|-00-22---|
E|--0-44----4-|-------0-|

Verse:
0:59
G|-----------|-----------|-----------|-----------|
D|-----------|------22---|-----------|------22---|
A|------22---|-0-44----4-|------22---|-0-44----4-|
E|-0-44----4-|-----------|-0-44----4-|-----------|

G|-----------|----------------|
D|-----------|----------------|
A|------22---|-00-22----------|
E|-0-44----4-|-------00-00-00-|

Chorus:
1:08
G|------------|-------------|
D|------------|-------------|
A|------------|-77-55-------|
E|--3-33-5-55-|-------77-55-| 3x

G|------------|-------------------|
D|------------|-------------------|
A|------------|-------------------|
E|--3-33-5-55-|-77777777-77777777-|

Adlib:
1:22
G|-----------|-----------|-----------|-----------|
D|-----------|------22---|-----------|------22---|
A|------22---|-0-44----4-|------22---|-0-44----4-|
E|-0-44----4-|-----------|-0-44----4-|-----------|

G|-----------|---------|
D|-----------|---------|
A|------22---|-00-22---|
E|-0-44----4-|-------0-|

Verse:
1:34
G|-----------|-----------|-----------|-----------|
D|-----------|------22---|-----------|------22---|
A|------22---|-0-44----4-|------22---|-0-44----4-|
E|-0-44----4-|-----------|-0-44----4-|-----------|

G|-----------|---------|
D|-----------|---------|
A|------22---|-00-22---|
E|-0-44----4-|-------0-|

Verse:
1:43
G|-----------|-----------|-----------|-----------|
D|-----------|------22---|-----------|------22---|
A|------22---|-0-44----4-|------22---|-0-44----4-|
E|-0-44----4-|-----------|-0-44----4-|-----------|

G|-----------|----------------|
D|-----------|----------------|
A|------22---|-00-22----------|
E|-0-44----4-|-------00-00-00-|

Chorus:
1:54
G|------------|-------------|
D|------------|-------------|
A|------------|-77-55-------|
E|--3-33-5-55-|-------77-55-| 7x

G|------------|-------------------|
D|------------|-------------------|
A|------------|-------------------|
E|--3-33-5-55-|-77777777-77777777-|

2:19
G|---|
D|---|
A|---|
E|-0-|

Outro: Rest 4 bars, then . . .
2:26
G|---------|
D|---------|
A|---------|
E|-7-5-4-0-| (quack)
Tap to rate this tab
# A B C D E F G H I J K L M N O P Q R S T U V W X Y Z