Song name
# A B C D E F G H I J K L M N O P Q R S T U V W X Y Z

Giniling Festival - Holdap tab

RE-EDITED VERSION (NALITO AKO MAG TYPE PACENXA NA PO)


artist: giniling festival
title: holdap

tabbed by : MR. JUDY B. DIAZ JR.
e-add: sad_statue_41@yahoo.com
contact no.: 09085496825

hmm..sana magustuhan nyo.. dedicated to sa lahat ng mga naholdap dyan lalo na sa tropa 
c GILMORE ehehe.
add nyo ko sa facebook pati sa friendster kahit sa ym pa ayun e-add ko oh!
1st time ko mag pasa ng tabs d2 para kasing nakakatamad mag sulat2x ng ganito..pero e2 
rin.. HOLDAP BY GINILING FESTIVAL.

paki rate po and comment.thnx..


TUNING: DROP D

 ~GUITAR 1 (MAG KA SABAY TO 2x) ~GUITAR 2
E|-------------------|-------------------|
B|-1-2-1-2-1-2-4-2-1-|-------------------|
G|-------------------|-5-~~~~~5----------|
D|-------------------|-5-~~~~~5----------|
A|-------------------|-3-~~~~~3----------|
D|-------------------|-------------------|
  `AH HAAH HAAH AHHAHAHA 2X


 ~GUITAR 1 AND 2             2X
E|-------------------------------|
B|-------------------------------|
G|-5-----6-5-----6-5-----6-8-6-5-|
D|-x-x-x-x-x-x-x-x-x-x-x-x-x-x-x-|
A|-3-3-3-4-3-3-3-4-3-3-3-4-6-4-3-|
D|-------------------------------|


STANZA:

 ~GUITAR 1                       4X
E|-------------------------------------|
B|-/12b13\--/12b13\--/12b13\--/12b13\--|
G|-------------------------------------|
D|-------------------------------------|
A|-------------------------------------|
D|-------------------------------------|

(MAG KA SABAY DIN TO)

 ~GUITAR 2    2X                               2X
E|--------------|---------------------------------|
B|--------------|---------------------------------|
G|-5-5-5-5-5-5--|-13--12-10--12--13---12---10--12-|
D|-x-x-x-x-x-x--|-x---x---x--x---x----x----x---x--|
A|-3-3-3-3-3-3--|-11--10--8--10--11---10---8---10-|
D|--------------|---------------------------------|
  `HOLDAP HOLDAP ITO HOLDAP ITO HOLDAP ITO 4X

 ~GUITAR 1 AND 2
----------------------PALM MUTED---------------------------|
E|------------------------|--------------------------------|
B|------------------------|--------------------------------|
G|----------------------6-|5-----6-5-----6-5-----6-8-6-5---|
D|-6xxxxxxx----8xxxxxxx-x-|x-x-x-x-x-x-x-x-x-x-x-x-x-x-x---|
A|-66666666----88888888-4-|3-3-3-4-3-3-3-4-3-3-3-4-6-4-3---|
D|-66666666----88888888---|--------------------------------|
  `SORRY WALA KANG MAKU-KU~~~HA HAHA AHHA AHAHAHA

 ~GUITAR 1 (PAG KAKARINIG KO SI GUITAR 1 LNG MUNA PATI SI BASS EH)
E|---------------------------------------------------|
B|---------------------------------------------------|
G|------------------------------------7--------------|
D|---------7-5---7-7-7-7-10-8-7-8-8-8---10-8-7-------|
A|-8-8-8-8-----8-------------------------------8-8-8-|
D|---------------------------------------------------|
 `PERA AKO AY WALANG PERA DAHIL WALA KONG PERA TAPOS MANG HOHOLDAP KAPA


 ~GUITAR 2 (SI GUITAR 1 GAYA LANG NUNG KANINA YUNG NASA TAAS ^)
E|----------------------------9----------------10-----------------|
B|-6-6-6-6-10-8-6-10-10-10-10---11-10-11-11-11----13-11-10\6-6-6--|
G|----------------------------------------------------------------|
D|----------------------------------------------------------------|
A|----------------------------------------------------------------|
D|----------------------------------------------------------------|
 `TAE GUSTO MO BA NG TAE DAHIL WALA KONG PERA TAPOS MANG HOHOLDAP KAPA


 ~GUITAR 1 AND 2
E|--------------------------------------------------------------------------|
B|---10--10--10--10---10--10--10--10--11---11---11----11----10---10--10--10-|
G|---10--10--10--10---9---9---9---9---10---10---10----10----10---10--10--10-|
D|--x---x---x---x---7---7---7---7---8---8-----8-----8------x----x---x--x----|
A|-8---8---8---8------------------------------------------8----8---8---8----|
D|--------------------------------------------------------------------------|
 `PANGET IKAW AY SOBRANG PANGET DAHIL WALA KONG PERA TAPOS MANG HOHOLDAP KAPA

 ~GUITAR 1 AND 2
E|---------------------|
B|---------------------|
G|---------------------|
D|-3-3-7-7-8-8-3-3-----|
A|-3-3-7-7-8-8-3-3-----|
D|-3-3-7-7-8-8-3-3-----|
 `TAE GUSTO MO BA NG TAE DAHIL WALA KONG PERA TAPOS MANG HOHOLDAP KAPA

(ULIT LNG LAHAT TO SIMULA SA STANZA)

--------MAHABANG BASS PART-----------
WHO AMONG YOU HERE IS A VICTIM O HOLDAP? (AYEEEEE)
JEBS! WHAT DO HOLDAPERS DO? (THEY TAKE AWAY YOUR MONEY AND THEY RUN AS FAST AS THEY CAN)
SAY IT AGAIN MONPI (RUN AS FAST AS THEY CAN)
ANTON! SPELL HOLDAPER? (HOLDAPER G.H.U. HOLDAPER)
DO WE HATE HOLDAPERS? (YEAH!!!)
DO YOU WANT TO BE A HOLDAPER (NO!!)
TO THOSE WHO DONT WANT TO BA A HOLDAPER..RAISE YOUR RIGHT HAND AND REPEAT AFTER ME.
I(I)
STATE YOUR WHOLE NAME (SHFISDHERIGHUGI)
WOULD NEVER! (WOULD NEVER)
I SAID NEVER! (EVER!)
BE A HOLDAPER (BE A HOLDAPER)
BECAUSE THEY ARE UGLY (BECAUSE THEY ARE UGLY)
AND IT IS BAD (VERY BAD!)
AND THEY EAT..
-------KATAPUSAN NG MAHABANG BASS PART-------------

~GUITAR 1 AND 2 (PALM MUTED EXCEPT UNG UNANG BAGSAK NG STRUM)(d ko alam pano ipapaliwanag ehehehe)
E|--------------------------------------------------------------------------|
B|--------------------------------------------------------------------------|
G|--------------------------------------------------------------------------|
D|-6xxxxxxx-----------8xxxxxxx-------6xxxxxxx-----------8xxxxxxx------------|
A|-66666666-----------88888888-------66666666-----------88888888------------|
D|-66666666-----------88888888-------66666666-----------88888888------------|
 `TAE~~~~~~~THEY EAT TAE?~~~~~OH ITS TAE~~HOLDAPERS EAT TAE

E|---------------------------------------|------------------------------|
B|---------------------------------------|------------------------------|
G|-------------------------------------6-|5-----6-5-----6-5-----6-8-6-5-|
D|-6xxxxxxx----------8xxxxxxx----------x-|x-x-x-x-x-x-x-x-x-x-x-x-x-x-x-|
A|-66666666----------88888888----------4-|3-3-3-4-3-3-3-4-3-3-3-4-6-4-3-|
D|-66666666----------88888888------------|------------------------------|
 `PARE-PAREHO LANG NAMAN TAYONG WALANG PE~RA HAHA HAHA HAHAHAAHHHH

GUITAR 1        (MAG KA SABAY)       GUITAR 2
E|---------------------|----------------------------9----------------10-----------------|
B|---------------------|-6-6-6-6-10-8-6-10-10-10-10---11-10-11-11-11----13-11-10\6-6-6--|
G|---------------------|----------------------------------------------------------------|
D|-3-3-7-7-8-8-3-3-----|----------------------------------------------------------------|
A|-3-3-7-7-8-8-3-3-----|----------------------------------------------------------------|
D|-3-3-7-7-8-8-3-3-----|----------------------------------------------------------------|
 `PERA AKO AY WALANG PERA DAHIL WALA KONG PERA TAPOS MANG HOHOLDAP KAPA
 `TAE GUSTO MO BA NG TAE DAHIL WALA KONG PERA TAPOS MANG HOHOLDAP KAYA
 `PANGET IKAW AY SOBRANG PANGET DAHIL WALA KONG PERA TAPOS MANG HOHOLDAP KAPA
 `TAE GUSTO MO BA NG TAE DAHIL WALA KONG PERA TAPOS MANG HOHOLDAP KA PA (DOUBLE TIME SI 
2 SI GUITAR 1 BAGSAK2x LANG DUN SA LAST LINE)

 ~GUITAR 1 AND 2 (OUTRO)
E|----|------------------------------|
B|----|------------------------------|
G|--6-|5-----6-5-----6-5-----6-8-6-5-|
D|--x-|x-x-x-x-x-x-x-x-x-x-x-x-x-x-x-|
A|--4-|3-3-3-4-3-3-3-4-3-3-3-4-6-4-3-|
D||---|------------------------------|
  `HA~~~HA HAHA AHHA AHAHAHA

E2 NA TALGA 2..NALITOA AKO DUN S UNANG TYPE KO EH..EHEHE PEACE
Tap to rate this tab
# A B C D E F G H I J K L M N O P Q R S T U V W X Y Z