Song name
# A B C D E F G H I J K L M N O P Q R S T U V W X Y Z

Giniling Festival - Psycho Sya tab

First tab I shared on Ultimate-Guitar.com
Since, walang mejo ok na pattern ang nakita ko d2, share ko na ito.
This is much more accurate than others na nakita ko, but i'm open for correction
and addition for my work.

Please rate and comment po...
SALAMAT... Rock On \m/


Intro:

Bass: G - F - Bb - C - D

Guitar:
----------------------------------------------------------------|
----------------------------------------------------------------|
----------------------------------------------------------------|
---5------8-7-----10-8----12-10-----13-12-----------------------|
----------------------------------------------------------------|
----------------------------------------------------------------|


    Gm               F                 D

------------10-8-----------8---11-10-8------8---10--------------|
---11-10-8-------11-10-11--------------11-----------------------|
----------------------------------------------------------------|
----------------------------------------------------------------|
----------------------------------------------------------------|
----------------------------------------------------------------|




Gm          F
Umuwi ako putok ang labi
Eb                   D
Umiiyak at may pasa
Gm            F
Ginulpi ako at binugbog ng aking
Gm     C          D C D
Syota sobra na, hayop siya


Gm                        F
Naglalakad ako nang may makitang babae
D                        Gm
Nakatingin sa akin at biglang nag-flying kiss
C           Gm
Sinalo ko at kumindat pabalik
Bb                      A      Bb        C
Hindi ko alam nasa likod kong girlfriend ko

chorus:
Eb        Bb
Sampal at dagok,
F                Bb
Flying kick at batok

Eb                    F
Hindi pa tapos dinagdagan pa niya ulit
Eb       Bb    F          Bb
Kagat ng aso, sipang kabayo
Eb                 F
Hindi ko na kaya ayoko na ule
           D   C  Bb    F-F         Bb
Mahal ko siya ngunit...     Psycho siya
           D   C  Bb    F-F         Bb
mahal ko siya ngunit...     Psycho siya


 G                       F             D
-------------------------------8---------------------|
--11--10-8----11-10-8----8-10----11-10-8-10-11-------|
----------------------10-----------------------------|
-----------------------------------------------------|
-----------------------------------------------------|
-----------------------------------------------------|


Gm               F
Laking gulo ang dulot sakin
Eb              D
Hindi pa nga mag-asawa
Gm                F
Sakit sapul sa perwisyo ang aking
Gm     C         D  C  D
Syota sobra na, hayop siya

Gm                         F
Nakasakay sa bus ng may pumarang babae
D                        Gm
Siya ay nakasabit kaya't di ko natiis
C          Gm
Pinaupo ko sa kandungan ko
Bb                     A       Bb        C
Kaya lang kasama ko pala ang girlfriend ko

Repeat CHORUS

add lib

Repeat CHORUS

               D    C  Bb    F-F         Bb
mahal ko siya ngunit...   Psycho siya
               D    C  Bb    F-F         Bb
mahal ko siya ngunit...   Psycho siya



-deythedevil-
09-01-2013

thankz for the help of my bassist ( Bob Lipaen)
Tap to rate this tab
# A B C D E F G H I J K L M N O P Q R S T U V W X Y Z