Guitaretab - guitar tabs
Song name
# A B C D E F G H I J K L M N O P Q R S T U V W X Y Z

Giniling Festival - Holdap tab

Song: Holdap
Artist: Giniling Festival
Tabbed By: Sungao

“umm.. alam ko dropped C un tuning  ng
 giniling festival eh peo ung tab na ginawa
 naka dropped D lang para pogi..”

sungao_punk@yahoo.com		09183140928


Tuning: Dropped D [ D – A – D – G – B – E ]

Intro 1

Guitar1
|------------------|
|------------------|
|--3---------------|
|--3---let ring----|  X2
|--5---------------|
|------------------|

Guitar2
|-------------------------------|
|-------------------------------|
|-------------------------------|
|-10--11-10-11-10--11-13-11-10--| X4
|-10--11-10-11-10--11-13-11-10--|
|-10--11-10-11-10--11-13-11-10--|

Guitar1
|-------------------------------|
|-------------------------------|
|-5---6---5--6---5--6--8--6--5--|
|-x---x---x--x---x--x--x--x--x--| X2
|-3---4-/-3--4-/-3--4--6--4--3--|
|-------------------------------|

Intro 2

Guitar1
|----------------------------------|
|----------------------------------|
|-5--5-5-5---5--5-5-5-5---5-5-5-5--|
|-5--x-x-x---5--x-x-x-x---x-x-x-x--| X2
|-3--3-3-3---3--3-3-3-3---3-3-3-3--|
|----------------------------------|

Guitar2
|--------------------|
|-13-13-13-13-13-13--|
|-12-12-12-12-12-12--|
|-10-10-10-10-10-10--| X4
|-10-10-10-10-10-10--|
|-10-10-10-10-10-10--|

Guitar1
|---------------------------|
|---------------------------|
|-13-13-13--12-12-12--8--8--|
|--x--x--x---x--x--x--x--x--| X2
|-11-11-11--10-10-10--6--6--|
|---------------------------|

Verse

Guitar1 PM
|------------------------------------------------|
|------------------------------------------------|
|------------------------------------------------|
|-6-6-6-6-8-8-8-8-11-10-11-10-11-10-11-13-11-10--|
|-6-6-6-6-8-8-8-8-11-10-11-10-11-10-11-13-11-10--|
|-6-6-6-6-8-8-8-8-11-10-11-10-11-10-11-13-11-10--|

Chorus

Guitar1
|-------------------------------|
|-------------------------------|
|-------------------------------|
|-3-3-3-7-5-3-7-7-7-10-8-7-8-8--|
|-3-3-3-7-5-3-7-7-7-10-8-7-8-8--|
|-3-3-3-7-5-3-7-7-7-10-8-7-8-8--|

|--------------------|
|--------------------|
|--------------------|
|-8-11-10-8-7-5-3-3--|
|-8-11-10-8-7-5-3-3--|
|-8-11-10-8-7-5-3-3--|

Guitar2 Lead
|--------------------------------------------|
|-----------------1----------3-1-------------|
|-------2-0--2-2-2--3-2-3-3-3----3-2-0-------|
|-3-3-3----3-----------------------------3-3-|
|--------------------------------------------|
|--------------------------------------------|

Guitar1 Chords
|-------------------------------------|
|-1-1-1-1--1-1-1-1--3-3-3-3--1-1-1-1--|
|-2-2-2-2--2-2-2-2--3-3-3-3--2-2-2-2--|
|-3-3-3-3--2-2-2-2--3-3-3-3--3-3-3-3--|
|-3-3-3-3-----------1-1-1-1--3-3-3-3--|
|-------------------------------------|
[ Tab from: http://www.guitaretab.com/g/giniling-festival/85773.html ]
Both Guitars
|------------------------------------|
|------------------------------------|
|------------------------------------|
|-3---------7---------8-----------3--|
|-3---------7---------8-----------3--|
|-3---------7---------8-----------3--|

Repeat Intro 2
Repeat Verse
Repeat Chorus

Bridge

Bass
|----------------------------------|
|----------------------------------|
|----------------------------------|
|----------------------------------| X maraming
|--3-3-----3-3------3-3-------3-3--| beses
|----------------------------------|

Guitar1 PM
|------------------------|
|------------------------|
|------------------------|
|-6-6-6-6-6---8-8-8-8-8--| X3
|-6-6-6-6-6---8-8-8-8-8--|
|-6-6-6-6-6---8-8-8-8-8--|

|----------------------------------|
|----------------------------------|
|----------------------------------|
|-11-10--11-10-11-10--11-13-11-10--| X2
|-11-10--11-10-11-10--11-13-11-10--|
|-11-10--11-10-11-10--11-13-11-10--|

Repeat Chorus

Guitar2
|--------5--5-5-5-8-6-5-6-6-6-9-8-6-5-----------|
|-6-6-6-8-6----------------------------8-6-6----|
|-----------------------------------------------|
|-----------------------------------------------|
|-----------------------------------------------|
|-----------------------------------------------|

Outro

Both Guitars
|-------------------------------|
|-------------------------------|
|-------------------------------|
|-10--11-10-11-10--11-13-11-10--| X4
|-10--11-10-11-10--11-13-11-10--|
|-10--11-10-11-10--11-13-11-10--|


Lyrics

holdap holdap ito
sori wala kang makukuha

pera ako ay walang pera
dahil wala 'kong pera
tapos manghoholdap ka pa
tae gusto mo ba ng tae
dahil wala 'kong pera
tapos maghoholdap ka pa
panget ikaw ay sobrang panget
dahil wala 'kong pera
tapos manghoholdap ka pa
tae gusto mo ba ng tae
dahil wala 'kong pera
tapos maghoholdap ka pa

hodap holdap ito
sori wala kang mapapala

jeje: "who among you here is a victim of holdap?"
all: blah blah
jeje: "jebs what do holdaper do?"
jebs: "they take away your money and they run as fast as they can"
jeje: "say it again mombi!"
mombi: "run as fas as they can!"
jeje: "anton spell holdaper?"
anton: "holdaper, G A G O, holdaper"
jeje: "do we hate holdapers?"
all: "yeah! blah blah.."
jeje: "do want to be a holdaper?"
all: "no.. blah blah.."
jeje: "to those who dont want to be a holdaper,
        raise your right hand and repeat after me.."
jeje: "I"
all: "ayy"
jeje: "state your whole name"
all: blah blah blah..
jeje: "will never.."
all: "will neber.."
jeje: "i said never!"
all: "eber.."
jeje: "be a holdaper.."
all: "be a holdaper"
jeje: "because they are ugly.."
all: "because they are ugly.."
jeje: "and it is bad.."
all: "very bad.."

and they eat tae
"they eat tae!"
who eats tae?
"holdaper eats tae!"
pare-pareho lang naman tayong
walang pera

					-excreta-

"tae kang hodaper ka balik mu un cp kong 3310..T_T"

sungao_punk@yahoo.com			09183140928
Related for Holdap tab
Holdap chords by Giniling Festival