Song name
# A B C D E F G H I J K L M N O P Q R S T U V W X Y Z

Giniling Festival - Siling Giniling tab

-------------------------------------------------------------------------------
			siling giniling – giniling festival
-------------------------------------------------------------------------------
Tabbed by: oxyride & kierbilito
Email:
slipknot_lo31@yahoo.com
kierbilito@yahoo.com

ADD us in our friendster,my space& radioclub!
also watch us in our daily gig at column bar, mayrics, & freedom bar!

WE would like 2 thank our sponsors:
•	Fender
•	Marshall
•	Zildian
•	Washburn
•	Top 40
•	PULP community
•	RAKISTA.com
•	ST.JUDE COLLEGE for there moral support
•	American BLVD.

also supporting bands:
•	CHICOSCI
•	VALLEY OF CHROME
•	QUESO
•	GREYHOUNDZ
•	SKY CHURCH
•	TYPECAST
•	SAYDIE
•	DOMINION
•	KAPATID
•	GINILING FESTIVAL
•	WOLFGANG
•	AND SPECIALLY SLIPKNOT!!!

Special thanks to: 
REYMAN GAPAS  for keep on reminding us to cut our hair and change our outfit.


Tuning:Drop D
Intro:
Both Guitars:
s-i-l-i-n-g-g-i-n-i-l-i-n-g
e|---------------------------------------------------------------------------|
B|---------------------------------------------------------------------------|
G|---------------------------------------------------------------------------|
D|--33333333----------------------///////------------------------------------|
A|--33333333—(repeat many times)--///////------------------------------------|
E|--33333333----------------------///////------------------------------------|

e|---------------------------------------------------------------------------|
B|---------------------------------------------------------------------------|
G|---------------------------------------------------------------------------|
D|---5-3-----2-1-------------------------------------------------------------|
A|---5-3—4x--2-1-4x----------------------------------------------------------|
E|---5-3-----2-1-------------------------------------------------------------|

e|---------------------------------------------------------------------------|
B|---------------------------------------------------------------------------|
G|---------------------------------------------------------------------------|
D|---5-3-----2-1-------------------------------------------------------------|
A|---5-3—4x--2-1-4x----------------------------------------------------------|
E|---5-3-----2-1-------------------------------------------------------------|


Verse:
guitar1&2
e|---------------------------------------------------------------------------|
B|---------------------------------------------------------------------------|
G|---------------------------------------------------------------------------|
D|---77777777---33333333---55555555---------5///---3-5//---------------------|
A|---77777777---33333333---55555555----2x---5///---3-5//---------------------|
E|---77777777---33333333---55555555---------5///---3-5//---------------------|

guitar1
e|---------------------------------------------------------------------------|
B|---------------------------------------------------------------------------|
G|---------------------------------------------------------------------------|
D|---77777777---33333333---55555555---------5///---3-5//---------------------|
A|---77777777---33333333---55555555----2x---5///---3-5//---------------------|
E|---77777777---33333333---55555555---------5///---3-5//---------------------|

guitar2
e|---------------------------------------------------------------------------|
B|---------------------------------------------------------------------------|
G|--5555555555555555---777777777777777---9999999999999999--------------------|
D|--xxxxxxxxxxxxxxxx---xxxxxxxxxxxxxxx---xxxxxxxxxxxxxxxx--------------------|
A|--3333333333333333---555555555555555---7777777777777777--------------------|
E|---------------------------------------------------------------------------|

pre-chorus
both guitars
e|---------------------------------------------------------------------------|
B|---------------------------------------------------------------------------|
G|---------------------------------------------------------------------------|
D|--5///7---3-5///7--------7777777-------------------------------------------|
A|--5///7---3-5///7--2x----7777777-------------------------------------------|
E|--5///7---3-5///7--------7777777-------------------------------------------|

chorus
both guitars
e|---------------------------------------------------------------------------|
B|---------------------------------------------------------------------------|
G|---------------------------------------------------------------------------|
D|---5555--7--6--5--------3333--5-3-5--333-----------------------------------|
A|---5555--7--6--5---2x---3333--5-3-5--333-----------------------------------|
E|---5555--7--6--5--------3333--5-3-5--333-----------------------------------|

e|---------------------------------------------------------------------------|
B|---------------------------------------------------------------------------|
G|---------------------------------------------------------------------------|
D|---5555--7--6--5--------3333--5-3-5--333-----------------------------------|
A|---5555--7--6--5---2x---3333--5-3-5--333-----------------------------------|
E|---5555--7--6--5--------3333--5-3-5--333-----------------------------------|

Verse:
guitar1
e|---------------------------------------------------------------------------|
B|---------------------------------------------------------------------------|
G|---------------------------------------------------------------------------|
D|---77777777---33333333---55555555---------5///---3-5//---------------------|
A|---77777777---33333333---55555555----2x---5///---3-5//---------------------|
E|---77777777---33333333---55555555---------5///---3-5//---------------------|

guitar2
e|---------------------------------------------------------------------------|
B|---------------------------------------------------------------------------|
G|--5555555555555555---777777777777777---9999999999999999--------------------|
D|--xxxxxxxxxxxxxxxx---xxxxxxxxxxxxxxx---xxxxxxxxxxxxxxxx--------------------|
A|--3333333333333333---555555555555555---7777777777777777--------------------|
E|---------------------------------------------------------------------------|

guitar1
e|---------------------------------------------------------------------------|
B|---------------------------------------------------------------------------|
G|---------------------------------------------------------------------------|
D|---77777777---33333333---55555555---------5///---3-5//---------------------|
A|---77777777---33333333---55555555----2x---5///---3-5//---------------------|
E|---77777777---33333333---55555555---------5///---3-5//---------------------|

guitar2
e|---------------------------------------------------------------------------|
B|---------------------------------------------------------------------------|
G|--5555555555555555---777777777777777---9999999999999999--------------------|
D|--xxxxxxxxxxxxxxxx---xxxxxxxxxxxxxxx---xxxxxxxxxxxxxxxx--------------------|
A|--3333333333333333---555555555555555---7777777777777777--------------------|
E|---------------------------------------------------------------------------|

pre-chorus
both guitars
e|---------------------------------------------------------------------------|
B|---------------------------------------------------------------------------|
G|---------------------------------------------------------------------------|
D|--5///7---3-5///7----------------------------------------------------------|
A|--5///7---3-5///7--2x------------------------------------------------------|
E|--5///7---3-5///7----------------------------------------------------------|

e|---------------------------------------------------------------------------|
B|---------------------------------------------------------------------------|
G|---------------------------------------------------------------------------|
D|--5///7---3-5///7--------7777777-------------------------------------------|
A|--5///7---3-5///7--2x----7777777-------------------------------------------|
E|--5///7---3-5///7--------7777777-------------------------------------------|



chorus
both guitars
e|---------------------------------------------------------------------------|
B|---------------------------------------------------------------------------|
G|---------------------------------------------------------------------------|
D|---5555--7--6--5--------3333--5-3-5--333-----------------------------------|
A|---5555--7--6--5---2x---3333--5-3-5--333-----------------------------------|
E|---5555--7--6--5--------3333--5-3-5--333-----------------------------------|

e|---------------------------------------------------------------------------|
B|---------------------------------------------------------------------------|
G|---------------------------------------------------------------------------|
D|---5555--7--6--5--------3333--5-3-5--333-----------------------------------|
A|---5555--7--6--5---2x---3333--5-3-5--333-----------------------------------|
E|---5555--7--6--5--------3333--5-3-5--333-----------------------------------|

both guitars
e|---------------------------------------------------------------------------|
B|---------------------------------------------------------------------------|
G|---------------------------------------------------------------------------|
D|---5555--7--6--5--------3333--5-3-5--333-----------------------------------|
A|---5555--7--6--5---2x---3333--5-3-5--333-----------------------------------|
E|---5555--7--6--5--------3333--5-3-5--333-----------------------------------|

e|---------------------------------------------------------------------------|
B|---------------------------------------------------------------------------|
G|---------------------------------------------------------------------------|
D|---5555--7--6--5--------3333--5-3-5--333-----------------------------------|
A|---5555--7--6--5---2x---3333--5-3-5--333-----------------------------------|
E|---5555--7--6--5--------3333--5-3-5--333-----------------------------------|






bridge1
guitar2
e|---------------------------------------------------------------------------|
B|---------------------------------------------------------------------------|
G|--555555555555555555555555-------777777777777777---------------------------|
D|--xxxxxxxxxxxxxxxxxxxxxxxx-------xxxxxxxxxxxxxxx---------------------------|
A|--333333333333333333333333-------555555555555555---------------------------|
E|---------------------------------------------------------------------------|

guitar1: fill ins
e|---------------------------------------------------------------------------|
B|---------------------------------------------------------------------------|
G|---------------------------------------------------------------------------|
D|-----3-3-3-------5-5-5-5-5---------7//////---------------------------------|
A|-----3-3-3-------5-5-5-5-5---------7//////---------------------------------|
E|-----3-3-3-------5-5-5-5-5---------7//////---------------------------------|

bridge2
e|---------------------------------------------------------------------------|
B|---------------------------------------------------------------------------|
G|---------------------------------------------------------------------------|
D|---5-3-----2-1-------------------------------------------------------------|
A|---5-3—4x--2-1-4x----------------------------------------------------------|
E|---5-3-----2-1-------------------------------------------------------------|

e|---------------------------------------------------------------------------|
B|---------------------------------------------------------------------------|
G|---------------------------------------------------------------------------|
D|---5-3-----2-1-------------------------------------------------------------|
A|---5-3—4x--2-1-4x----------------------------------------------------------|
E|---5-3-----2-1-------------------------------------------------------------|


chorus
both guitars
e|---------------------------------------------------------------------------|
B|---------------------------------------------------------------------------|
G|---------------------------------------------------------------------------|
D|---5555--7--6--5--------3333--5-3-5--333-----------------------------------|
A|---5555--7--6--5---2x---3333--5-3-5--333-----------------------------------|
E|---5555--7--6--5--------3333--5-3-5--333-----------------------------------|

e|---------------------------------------------------------------------------|
B|---------------------------------------------------------------------------|
G|---------------------------------------------------------------------------|
D|---5555--7--6--5--------3333--5-3-5--333-----------------------------------|
A|---5555--7--6--5---2x---3333--5-3-5--333-----------------------------------|
E|---5555--7--6--5--------3333--5-3-5--333-----------------------------------|

outro
e|---------------------------------------------------------------------------|
B|---------------------------------------------------------------------------|
G|---------------------------------------------------------------------------|
D|---7~~~---5--3--1----------------------------------------------------------|
A|---7~~~---5--3--1----------------------------------------------------------|
E|---7~~~---5--3--1----------------------------------------------------------|

LYRICS:
s-i-l-i-n-g-g-i-n-i-l-i-n-g 4x

ito ang sawsawan ng bayan
paboritong ulam
pwede rin palaman…..

SILING GINILING 2x hah! hah!

sa toothache 
sa headache
pati narin sa heartache
kahit sa almoranas
ito ang tanging lunas....

SILING GINILING 2x hah! hah
bili na kayo!

s-i-l-i-n-g-g-i-n-i-l-i-n-g
s-i-l-i-n-g-g-i-n-i-l-i-n-g

kung ayaw mung maligo
wag ng mamroblema
gamitin mong panghilod
siguradong solve ka naaah..

kapag wala kang tissue 
gumamit ng resibo kapag walalng resibo 
ito ang ipahid mooooooh…….

SILING GINILING 2x
SILING GINILING 2x
hah! hah!
SILING GINILING 2x

s-i-l-i-n-g-g-i-n-i-l-i-n-g
s-i-l-i-n-g-g-i-n-i-l-i-n-g (2x)

masarap, mabango, bagong bago
maanghang, matapang(sobrang tapang), murang mura

give me a s-i-l-i-n-g-g-i-n-i-l-i-n-g 
go!!!!
wooohooo!!!

hey! hey!
s-i-l-i-n-g-g-i-n-i-l-i-n-g
s-i-l-i-n-g-g-i-n-i-l-i-n-g (2x)

SILING GINILING 2x
SILING GINILING 2x
SILING GINILING 2x
SILING GINILING 2x

| /  slide up
| \  slide down
| h  hammer-on
| p  pull-off
| ~  vibrato
| +  harmonic
| x  Mute note
===============================================================================

Tap to rate this tab
 
# A B C D E F G H I J K L M N O P Q R S T U V W X Y Z