Song name
# A B C D E F G H I J K L M N O P Q R S T U V W X Y Z

Giniling Festival - Mabuhay Lahat Ng Single tab

gniling festival song mabuhay lahat ng 's'
  belarding bakla

  intro

e----------------------------------------|
b----------------------------------------|
g----------------------------------------|  [4x]
d--3-2-2-1-------------------------------|
a--3-2-2-1-------------------------------|
e--3-2-2-1-------------------------------|


  verse1

e----------------------------------------|
b------------------3------3--------------|
g------------4-------4-------------------|
d----------------6-----------------------|
a--------6-------------------------------|
e----------------------------------------|

e----------------------------------------|
b------------------3------3--------------|
g------------4-------4-------------------|
d----------------6-----------------------|
a------6--6------------------------------|
e----------------------------------------|

e----------------------------------------|
b------------------4------4--------------|
g------------5-------5-------------------|
d----------------7-----------------------|
a--------7-------------------------------|
e----------------------------------------|


e----------------------------------------|
b------------------4------4--------------|
g------------5-------5-------------------|
d----------------7-----------------------|
a----7----7------------------------------|
e----------------------------------------|


verse lyrics

may kasama ka ba nung nanood ka ng titanic 'wala'

may kasama ka ba nung valentines da 'wala'

..........................

....................................

   bridge


 chords [G----A#]

 bridge lyrics

wag kang mabahala kung wala

mabuhy lahat ng single

e----------------------------------------|
b----------------------------------------|
g----------------------------------------|  [4x]
d--3-2-2-1-------------------------------|
a--3-2-2-1-------------------------------|
e--3-2-2-1-------------------------------|

  verse 2
  verse1

e----------------------------------------|
b------------------3------3--------------|
g------------4-------4-------------------|
d----------------6-----------------------|
a--------6-------------------------------|
e----------------------------------------|

e----------------------------------------|
b------------------3------3--------------|
g------------4-------4-------------------|
d----------------6-----------------------|
a------6--6------------------------------|
e----------------------------------------|

e----------------------------------------|
b------------------4------4--------------|
g------------5-------5-------------------|
d----------------7-----------------------|
a--------7-------------------------------|
e----------------------------------------|


e----------------------------------------|
b------------------4------4--------------|
g------------5-------5-------------------|
d----------------7-----------------------|
a----7----7------------------------------|
e----------------------------------------|

   adlib
 lyrics

mahirap ang nagiisa walang makasama

sa hirap at sa ginhawa bat di nalang durugin natin ang ating

mga puso
sa hirap at sa ginhawa bat di nalang durugin natin ang ating

mga pwet mga puso

 tapos ulitin mo nalang

e----------------------------------------|
b----------------------------------------|
g----------------------------------------|  [4x]
d--3-2-2-1-------------------------------|
a--3-2-2-1-------------------------------|
e--3-2-2-1-------------------------------|

  super adlib

e---------------------------------------|
b---------6-----------------------------|
g---6--4--------------------------------|  pa ulit ulit lang yan
d---------------------------------------|
a---------------------------------------|
e---------------------------------------|


hoy arthur belarding gumawa ka naman ng sayo

sayang ung gitara mo

hoy gaw antukin
Tap to rate this tab
# A B C D E F G H I J K L M N O P Q R S T U V W X Y Z