Song name
# A B C D E F G H I J K L M N O P Q R S T U V W X Y Z

Ginuwine - In Those Jeans tab

This is basically the entire song. It is probably one of my favorite R&B tracks in the 
early 2000s. Standard tuning with no capo needed. I added the chords on top of the tab 
that way if you want to change the position of the guitar. Hope you guys enjoy. :D

P.S.- s means slide for the intro

INTRO:
e|------9s11--11-11--11s9--9-9--9s11--11-----|
B|------9s11--11-11--11s9--9-9--9s11--11-----|
G|-------------------------------------------|
D|-------------------------------------------|
A|-------------------------------------------|
E|-------------------------------------------|


VERSE/CHORUS:

        Dmin7              Amin              Bbmaj7
e|--------5------------------5-----------------6--------|
B|--------6------------------5-----------------6--------|
G|--------5------------------5-----------------7--------|
D|--------7------------------7-----------------7--------|
A|--------5------------------7-----------------8--------|
E|--------5------------------5-----------------6--------|
Tap to rate this tab
# A B C D E F G H I J K L M N O P Q R S T U V W X Y Z