Song name
# A B C D E F G H I J K L M N O P Q R S T U V W X Y Z

Ginuwine - Stingy tab

I came across this song by accident when I was messing around. Enjoy, suggestions are welcome.

E||----------------------|----------------------|----------------------|
B||-------9---------4----|-------5---------2----|----------------------|
G||-------9---------4----|-------6---------2----|-----------------2----|
D||-------9---------4----|-------7---------2----|------------2---------|
A||----------------------|----------------------|-------4--------------|
E||--9---------4---------|--5---------2---------|--2-------------------|

 
---------------------------------||
-----------------------4---------||
-----------------4----------4----||
------------4--------------------||
-------6-------------------------||
--4------------------------------|| repeat
Tap to rate this tab
# A B C D E F G H I J K L M N O P Q R S T U V W X Y Z