Guitaretab - guitar tabs
Song name
# A B C D E F G H I J K L M N O P Q R S T U V W X Y Z
Home / G / Gio / Bila Cinta tab

Gio - Bila Cinta tab

-------------------------------------------------------------------------------
			     Bila Cinta - Gio
-------------------------------------------------------------------------------
Tabbed by: Zahirah Ardy
Email: broississy@yahoo.com

Tuning: Standard
Artist's link: http://www.youtube.com/watch?v=Gm4QvVjsyzE (artist's official website is 
in the meantime)


There are 2 versions of this song, one of them is sang by Gio and another one is by 
Vlee. This is Gio's version. For Filianti's version, it is 5 steps higher. ie:
Am in Gio will be Dm in Filianti's. The intro, solo (played with a piano in Filianti's), 
outro are different in comparing both songs. If there's a request for Filianti's 
perhaps I'll tab one.

Intro (originally played using a piano):
e|-0---0-----|---------|----------|
B|---3---1---|-3-1-3---|--0-0-1-3-|
G|-----------|-------4-|-2--------|
D|---------2-|---------|----------|
A|-0---------|---------|----------|
E|-----------|-1-------|----------|

e|-0---0---|---7~-|
B|---3---1-|-3-9~-|
G|---------|---9~-|
D|---------|---9~-|
A|-0-------|---7~-|
E|---------|---7~-|


Verse 1:
         Am
Bila cinta kini
    Dm
Tak lagi bermakna
           G
Yang ku rasa kini
  C
Hanyalah nestapa
  F            E             Am
Ditinggalkan cinta masa lalu


         Am
Dulu kau tawarkan
  Dm
Manisnya janjimu
           G
Yang ku sambut itu
         C
Dengan segenap hatiku
    F            E
Hingga engkau pergi
           Am
Tinggalkanku

[ Tab from: http://www.guitaretab.com/g/gio/250749.html ]
Chorus:
          Dm      G
Hilangnya cintamu
        C         F
Menusuk hatiku
          Dm      E
Hingga ku memilih
             Am
Cinta yang fana
         Dm       G
Perginya dirimu
        C         F
merobek jantungku
          Dm      E
Hingga ku terjatuh
          Am
Dalam harapan


Solo:
e|--8---7---5---7---8--10--12h13--12v-|
B|-10--10--10--10--10--10--10---------|
G|------------------------------------|Please listen to the song
D|------------------------------------|in order to figure out
A|------------------------------------|repeatition of each note.
E|------------------------------------|I'm too lazy to count it.

e|--8---7---5---7---8--10---7p5--5v-----|
B|-10--10--10--10--10--10--10-----------|
G|--------------------------------------|Please listen to the song
D|--------------------------------------|in order to figure out
A|--------------------------------------|repeatition of each note.
E|--------------------------------------|

Rhythm to be played during solo:

Am Dm E
Am Dm E


Verse 2:
         Am
Ke sebut namamu
   Dm
Di setiap doaku
           G        C
Bangkitkan setiap kenangan tentangmu
     F           E           Am
Yang ku dapat hanyalah bayangmu


Chorus 2:
          Dm      G
Hilangnya cintamu
        C         F
Menusuk hatiku
          Dm      E
Hingga ku memilih
             Am
Cinta yang fana
         Dm       G
Perginya dirimu
        C         F
merobek jantungku
          Dm      E
Hingga ku terjatuh
          F
Dalam harapan
   Dm  Am  F  Dm  E
Oh~

Chorus 3:
          Dm      G
Hilangnya cintamu
        C         F
Menusuk hatiku
          Dm      E
Hingga ku memilih
             Am
Cinta yang fana
         Dm       G
Perginya dirimu
        C         F
merobek jantungku
          Dm      E
Hingga ku terjatuh
          F   Am   F  Am  F  Am
Dalam harapan
Related for Bila Cinta tab
×
Best way to learn
"Bila Cinta"