Song name
# A B C D E F G H I J K L M N O P Q R S T U V W X Y Z

Gio - Bila Cinta tab

I translated this from a recorder..so this is my first submit tabs ever!enjoy it.


* E|----------7-----------------------------------5---------------------------------------|
   B|--5--5----8---7-8----5-7-5-7-8------------7---5-5\3---3-3/7----7-7--8----------------|
   G|-------------------------------------5--5-5---------------------------------------4--|
   D|-------------------------------------------------------------------------------------|
   A|-------------------------------------------------------------------------------------|
   E|-------------------------------------------------------------------------------------|

* E|----------------------------7-------------|
   B|-------5-5---7---------------7---5-------|
   G|-4-5------------8-----4------------------|
   D|-----------------------------------------|
   A|-----------------------------------------|
   E|-----------------------------------------|

repeat *

   E|---------------7---8-8-----------5--7-7-----------------5-5---7-8-7---7h8---7-7--|
   B|---5--7--8--------------3-5-7-------------3--5--5/8---------------------7--------|
   G|-------------------------------------------5-------------------------------------|
   D|---------------------------------------------------------------------------------|
   A|---------------------------------------------------------------------------------|
   E|---------------------------------------------------------------------------------|


   E|---------------7---8-8-------8/12----10----5-5/8---10----7------------------------|
   B|---5--7--8------------------------------------------------------------------------|

   E|-----------------------5-5---------------------------|
   B|------3--55/8----------7-7--8--7---5----------------|
   G|--5--------------------------------------------------|
Tap to rate this tab
# A B C D E F G H I J K L M N O P Q R S T U V W X Y Z