Song name
# A B C D E F G H I J K L M N O P Q R S T U V W X Y Z

Gioacchino Rossini - The Barber Of Seville tab

-------------------------------------------------------------------------------
                         Overture - The Barber of Seville
-------------------------------------------------------------------------------
Written by: Giacchino Rossini
Tabbed by: Silverdark31
Email: Silverdark31@gmail.com

Tuning: Standard

| /  slide up
| \  slide down
| h  hammer-on
| p  pull-off
| ~  vibrato
| x  Mute note
| tr Trill
| tm Tremolo
| (?) Ghost note

e|-------------------------------------------9-------------------------------|
B|---------------------------------------------9-10---------16--16-----------|
G|--13--13-------------------------------6----------6-------16--16-----------|
D|--14--14-------------6-6-6-6-7-9-9-9-9--------------6-7---16--16-----------|
A|--14--14---7-7-7-7-9--------------------------------------14--14-----------|
E|--12--12-------------------------------------------------------------------|

e|---------------------------------7-------------4---5---6---7-4-----7-4-----|
B|-----------------------------------8-9-------------------------7-5-----7-5-|
G|---------------------------------------4-----------------------------------|
D|--------------------6-7-7-7-7-9----------5-6-------------------------------|
A|--6-6-6-6-7-9-9-9-9--------------------------------------------------------|
E|---------------------------------------------------------------------------|

						  2x
e|----------------4-5-4----------5-7-5-4---------|----12---9-----------------|
B|--7tr9---5tr7---------7-5-4------------7-5-4---|-12----9---12-10-----------|
G|----------------------------6------------------|-----------------10-11-----|
D|-----------------------------------------------|---------------------------|
A|-----------------------------------------------|---------------------------|
E|-----------------------------------------------|---------------------------|

e|---------9-11-12-9---------------------------------------------------------|
B|-9-11-13-----------10----9-10---------------12-----------------------------|
G|----------------------11------9-10h11-10-11----10--------------------------|
D|---------------------------------------------------------------------------|
A|---------------------------------------------------------------------------|
E|---------------------------------------------------------------------------|

e|--------------------------------10-10-10-10-9------------------------------|
B|--------------------------------10-10-10-10-9------------------------------|
G|-----------------------------6--7--7--7--7--6------------------------------|
D|-----------6-6-6-6-7-9-9-9-9-----------------------------------------------|
A|-7-7-7-7-9-----------------------------------------------------------------|
E|---------------------------------------------------------------------------|


					          2x
e|--------------------------------12-12-12-12-11-|-7-7-7-7-6-5-5-5-5-4-----------|
B|------------------------------4-12-12-12-12-11-|---------------------4h5-7-5-4-|
G|--------------------4-6-6-6-6---9--9--9--9--8--|-------------------------------|
D|--4-4-4-4-6-7-7-7-7----------------------------|-------------------------------|
A|-----------------------------------------------|-------------------------------|
E|-----------------------------------------------|-------------------------------|


  2x
e|-----------------------|------------|
B|-----------------------|-16-16------|
G|-----------------------|-16-16--8-8-|
D|-----------------------|-16-16--9-9-|
A|-6-7-9-10-10/12~-10-9~-|-14-14--9-9-|
E|-----------------------|--------7-7-|


  [A]
e|---------------------------------------------------------------------|
B|---------------12-12-12-13-12-----12-12-12-13-12-----12-12-12-12tr13-|
G|---------------------------------------------------------------------|
D|---------------------------------------------------------------------|
A|-7-7-7-7-7-7-7----------------7-7----------------7-7-----------------|
E|---------------------------------------------------------------------|
PM -------------		---		   ---


e|----------------------------------------7------------|
B|-10-10h12p8-7-7tr8----8-8-8-7---8-7---8---7-7-7-8-10-|
G|-------------------10---------9-----9----------------|
D|-----------------------------------------------------|
A|-----------------------------------------------------|
E|-----------------------------------------------------|

e|----------------------------------------------------------------------------------------|
B|-10-8-8-7-------------------------------------------------------------------------------|
G|----------9-9-7----------------9-7--------9-7------9-7------9-7-------------------------|
D|----------------10-10-9-7-9--9-----10-9-9-----10-9-----10-9-----10-10-9-9-7-7-----------|
A|------------------------------------------------------------------------------10-10-9-7-|
E|----------------------------------------------------------------------------------------|

e|---------------------------------------------------------------------|
B|---------------12-12-12-13-12-----12-12-12-13-12-----12-12-12-12tr13-|
G|---------------------------------------------------------------------|
D|---------------------------------------------------------------------|
A|-7-7-7-7-7-7-7----------------7-7----------------7-7-----------------|
E|---------------------------------------------------------------------|
PM -------------		---		   ---


e|------------------------------12-10-8-7----7-8-7--------|
B|-10-10h12p8-7-7tr8----8-7---------------10-------10-8-7-|
G|-------------------10-----9-7---------------------------|
D|--------------------------------------------------------|
A|--------------------------------------------------------|
E|--------------------------------------------------------|

e|-7----------------------------------------------------------|
B|---10-8-8-7-------------------------------------------------|
G|------------9-9-7-------------------------------------------|
D|------------------10-10-9-7----7-9-9-7---------7-7----------|
A|----------------------------10---------10-9-10-----10-9-(7)-|
E|------------------------------------------------------------|
							To [B] on 2nd play


e|--------------------------------------12-------------------------------------------------|
B|-----------------------------------12----12-12-12----12-12-12----12-12-12-12-------------|
G|-9-9-9-9-9--------9-9-9-9-9-9-9-12----------------12----------12-------------14-14-12-11-|
D|-X-X-X-X-X------9---X-X-X-X-X------------------------------------------------------------|
A|-7-7-7-7-7-7-10-----7-7-7-7-7------------------------------------------------------------|
E|-0-0-0-0-0----------0-0-0-0-0------------------------------------------------------------|

e|-----------------------------------------------------------------------------------------|
B|--------------------------------------12-10-10-10----10-10-10----10-12-13-13-12-12-10----|
G|-----------------------------------11-------------11----------11----------------------12-|
D|-9-9-9-9-9--------9-9-9-9-9-9-9-13-------------------------------------------------------|
A|-X-X-X-X-X------9---X-X-X-X-X------------------------------------------------------------|
E|-7-7-7-7-7-7-11-----7-7-7-7-7------------------------------------------------------------|

e|--------------------------------------12-------------------------------------------------|
B|-----------------------------------12----12-12-12----12-12-12----12-12-12-12-------------|
G|-9-9-9-9-9--------9-9-9-9-9-9-9-12----------------12----------12-------------14-14-12-14-|
D|-X-X-X-X-X------9---X-X-X-X-X------------------------------------------------------------|
A|-7-7-7-7-7-7-10-----7-7-7-7-7------------------------------------------------------------|
E|-0-0-0-0-0----------0-0-0-0-0------------------------------------------------------------|

e|----------------------------------------------------------------------------|
B|----------------------------------------------------15-13-13-13----13-13-13-|
G|-------------------------------------------------14-------------14----------|
D|-12-12-12-12-12----------12-12-12-12-12-12-12-16----------------------------|
A|-X--X--X--X--X--------12----X--X--X--X--X-----------------------------------|
E|-10-10-10-10-10-10-14-------10-10-10-10-10----------------------------------|

e|-------------------------------------------------------------------------------------------------
B|-13-12----------------------------------13-15-15-15-15-15-15-15-15-------13-13-13-13-------12-12-
G|-------14-12-------------12----12-14-16----------------------------------------------------------
D|-------------16-14-12-------12-------------------------------------14-14-------------12-12-------
A|----------------------15-------------------------------------------------------------------------
E|-------------------------------------------------------------------------------------------------

----------------|----------------------------------------------------------------------------|
----11----------|----------------------13-------13-------------------------------------------|
-14----14-12-11-|-12-14-16----13-14-16----14-16-------11-12-13-16-12-14-16-------12----------|
----------------|----------14----------------------12----------------------14-14----16-14-12-|
----------------|----------------------------------------------------------------------------|
----------------|----------------------------------------------------------------------------|

e|----------------------------------------------------------------12-14-|
B|-------------------------------------------------------12-14-15-------|
G|-------------------------------------------------12-14----------------|
D|-------------------------------------12-12-14-16----------------------|
A|-------------------12-12-14-14-15-15----------------------------------|
E|-12-12-14-14-15-15----------------------------------------------------|


					2x
e|-------------------------------------|----------------------------------------|
B|----------------------------12-14-15-|----------------------------------------|
G|----------12----------12-14----------|----------------------------------------|
D|-12-14-16----16-14-16----------------|-13-12----------------------------------|
A|-------------------------------------|-------15-13-12-15----15----15----15----|
E|-------------------------------------|-------------------15----14----11----10-|


  2x
e|----------------|-------------------------------------------------------|
B|----------------|-------------------------------------------------------|
G|----------------|-14-------------17-14----------21-19-------------------|
D|-13-------------|----16-12-------------16-------------22-21-19----------|
A|----15-12-------|----------15-12----------17-15----------------22-21-19-|
E|----------15-14-|-------------------------------------------------------|

e|---------------------------------------------------------------------------|
B|---------------------------------------------------------------------------|
G|---------------------------------------------------------------------------|
D|---------------------------------------------------------------------------|
A|---------------------------------------------------------------------------|
E|-22-21-20-19-18-17-16-15-14-13-12-11-10tm-11tm-12tm-14tm-12h14h15----------|

e|---------------------------------------------------------------------------|
B|---------------------------------------------------------------------------|
G|-12-14-16-16-------------12-12-12-12-12-12-12-12-13-14---------------------|
D|-------------12-12-14-16---------------------------------------------------|
A|---------------------------------------------------------------------------|
E|---------------------------------------------------------------------------|

e|---------------------------------------------------------------------------|
B|---------------------------------------------------------------------------|
G|-14-16-17-17----------12-14-14-14-14-14-14-14-14-15-16---------------------|
D|-------------12-12-16------------------------------------------------------|
A|---------------------------------------------------------------------------|
E|---------------------------------------------------------------------------|

e|-------------------------------------------------------------------------------|
B|-------------------------------------------------------------------------------|
G|----------12-------------------12-12-12-12-------------------------------------|
D|-------12-------------12-12-12-------------16-14-14-12-------------------------|
A|----14-------------14----------------------------------15-15-14-12-12----------|
E|-15----------10-15----------------------------------------------------15-14-15-|

e|---------------------------------------------------------------------------|
B|---------------------------------------------------------------------------|
G|---------------------------------------------------------------------------|
D|-------------4-5-7-9-9---------5-5-5-5-5-5-5-5-6-7-------------------------|
A|-------3-5-7-----------5-5-7-9---------------------------------------------|
E|-3-5-7---------------------------------------------------------------------|

e|---------------------------------------|
B|---------------------------------------|
G|---------------------------------------|
D|-7-9-10-10-------5-7-7-7-7-7-7-7-7-8-9-|
A|-----------5-5-9-----------------------|
E|---------------------------------------|


						      2x
e|---------------------------------------------------|-----------------------------|
B|-------8-------------8-8-8-8-7---------------------|-----------------------------|
G|-----7---------7-7-7-----------9-9-7-5-5-----------|-------------5/7-5-----------|
D|-5-9-------5-9---------------------------9-7-7-5---|-5-7-9-5-7-9-------9-8-9-7-9-|
A|---------5---------------------------------------9-|-----------------------------|
E|---------------------------------------------------|-----------------------------|

e|---------------------------------------------------------------------------|
B|---------------------------------------------------------------------------|
G|---------------------------------------------------------------------------|
D|---------------------------------------------------4/5-5-5-4-4-------------|
A|---------------------------------5-------5-5-5-5-5-------------7-7-5-5-3---|
E|-7-7-7-7-7-7-8-7-5-7-8-8-8-8-8-8---8-7-8---------------------------------7-|

e|-----------------------------------------------------------------------|
B|-------------------------------------------------7/8-8-8-7-7-5-5-------|
G|-------------------------------4-------4-4-4-4-4-----------------7-7-5-|
D|-5-5-5-5-5-7-5-4-5-7-7-7-7-7-7---7-5-7---------------------------------|
A|-----------------------------------------------------------------------|
E|-----------------------------------------------------------------------|

e|-------------------------------------------------------------------------|
B|---------------------------------------------------7/8-8-8-7-7-5-5-------|
G|-4-4-4-4-4-4-5-4---4-5-5-5-5-5-5-7-5-4-5-7-7-7-7-7-----------------7-7-5-|
D|-----------------7-------------------------------------------------------|
A|-------------------------------------------------------------------------|
E|-------------------------------------------------------------------------|


  2x
e|---------------------|---------------------------------------------------|
B|---------------------|---------------------------------------------------|
G|-4tm-5tm-6tm-7-4-5---|---5-4---4-5-4---4-5-4------5-4--------------------|
D|-------------------7-|-5-----7-------7-------7-5------7-5----------------|
A|---------------------|------------------------------------9-7-6-(To [A])-|
E|---------------------|---------------------------------------------------|


[B]
e|---------------------------------------------------------------------------|
B|---------------------------------------------------------------------------|
G|-9-11-13-13-----------9-9-9-9-9-9-9-9-10-11--------------------------------|
D|------------9-9-11-13------------------------------------------------------|
A|---------------------------------------------------------------------------|
E|---------------------------------------------------------------------------|

e|---------------------------------------------------------------------------|
B|---------------------------------------------------------------------------|
G|-11-13-14-14--------9-11-11-11-11-11-11-11-11-12-13------------------------|
D|-------------9-9-13--------------------------------------------------------|
A|---------------------------------------------------------------------------|
E|---------------------------------------------------------------------------|

e|---------------------------12-12-12-12-11-9-9------------------------------|
B|----------------9-12-12-12--------------------12-10-10-9-------------------|
G|---------9----9------------------------------------------11-11-9-8---------|
D|-------9----9--------------------------------------------------------------|
A|----11---------------------------------------------------------------------|
E|-12------------------------------------------------------------------------|

e|---------------------------------------------------------------------------|
B|---------------------------------------------------------------------------|
G|---------------------------------------------------------------------------|
D|-------------1-2-4-6-6---------2-2-2-2-2-2-2-2-3-4-------------------------|
A|-------0-2-4-----------2-2-4-6---------------------------------------------|
E|-0-2-4---------------------------------------------------------------------|

e|---------------------------------------------------------------------------|
B|---------------------------------------------------------------------------|
G|---------------------------------------------------------------------------|
D|-4-6-7-7-------2-4-4-4-4-4-4-4-4-5-6---------------------------------------|
A|---------2-2-6-------------------------------------------------------------|
E|---------------------------------------------------------------------------|

e|--------------------------12-12-12-12-11-9-9-------------------------------|
B|---------------9-12-12-12--------------------12-10-10-9--------------------|
G|--------9----9------------------------------------------11-11-9-8----------|
D|------9----9---------------------------------------------------------------|
A|-7-11----------------------------------------------------------------------|
E|---------------------------------------------------------------------------|


  2x
e|-----------------------------------------|
B|-----------------10/12-10----------------|
G|-9-11-13-9-11-13----------13-12-13-11-13-|
D|-----------------------------------------|
A|-----------------------------------------|
E|-----------------------------------------|

e|---------------------------------------------------------------------------|
B|---------------------------------------------------------------------------|
G|---------------------------------------------------8/9-9-9-8-8-6-6---------|
D|---------------------------------6-------6-6-6-6-6-----------------9-9-7-6-|
A|-7-7-7-7-7-7-9-7-6-7-9-9-9-9-9-9---9-7-9-----------------------------------|
E|---------------------------------------------------------------------------|

e|-------------------------------------------------11/12-12-12-11-11-9-9----------|
B|-----------7-------7-7-7-7-7-7-9-7---7-9-9-9-9-9-----------------------12-12-10-|
G|-9-9-9-9-9---9-8-9-----------------9--------------------------------------------|
D|--------------------------------------------------------------------------------|
A|--------------------------------------------------------------------------------|
E|--------------------------------------------------------------------------------|

e|-------------------------------------------------------------------11/12-12-12-11-11-9-9---------|
B|-9-9-9-9-9-9-10-9----9-10-10-10-10-10-10-12-10-9-10-12-12-12-12-12-------------------------------|
G|------------------11---------------------------------------------------------------------12-12-10|
D|-------------------------------------------------------------------------------------------------|
A|-------------------------------------------------------------------------------------------------|
E|-------------------------------------------------------------------------------------------------|


  4x
e|---11/12-12-11-9-------|
B|-9---------------12-10-|
G|-----------------------|
D|-----------------------|
A|-----------------------|
E|-----------------------|


  2x
e|-----------------------------------------------------------------------------------
B|-9-12-9-------9----------10-----------------12-9-------9----------10---------------
G|--------11-10---------11----11-9-8-11-----9------11-10---------11----11-9-8-11---9-
D|----------------11-11-----------------9-9----------------11-11-----------------9---
A|-----------------------------------------------------------------------------------
E|-----------------------------------------------------------------------------------

-12-11-10-9-7-6-5-3----------------------------12-12-12-12-12-12-12-12-11-11-11-11-11-11-11-11-|
--------------------55555555-66666666-77777777-------------------------------------------------|
-----------------------------------------------------------------------------------------------|
-----------------------------------------------------------------------------------------------|
-----------------------------------------------------------------------------------------------|
-----------------------------------------------------------------------------------------------|


  2x							     3x
e|-12----------12-------12-12-14-------14-14-11-------11-11-|-12-14-12-11-|
B|----12----12----12-------------12-------------12----------|-------------|
G|-------13----------13-------------13-------------13-------|-------------|
D|----------------------------------------------------------|-------------|
A|----------------------------------------------------------|-------------|
E|----------------------------------------------------------|-------------|


  2x
e|-12----12----------------|-12-------------------------|--12--|------|--0--|
B|----12----12----------12-|----------------------12-12-|--12--|--21--|--0--|
G|-------------13----13----|----------------13-13-------|--13--|--21--|--1--|
D|----------------14-------|----14-14-14-14-------------|--14--|--21--|--2--|
A|-------------------------|----------------------------|------|--19--|--2--|
E|-------------------------|----------------------------|------|------|--0--|

===============================================================================
Tap to rate this tab
# A B C D E F G H I J K L M N O P Q R S T U V W X Y Z