Song name
# A B C D E F G H I J K L M N O P Q R S T U V W X Y Z

Giorgio Moroder - Push It To The Limit tab

Scarface - Push it to the Limit

standard tuning

opening keys riff (arranged for guitar)
|--------------|--------------|--------------|--------------|
|--8-8---8--8--|--6-6---6--6--|--3-3---3--3--|--4-4---4--4--|
|--8-8---8--8--|--7-7---7--7--|--3-3---3--3--|--5-5---5--5--|
|--------------|--------------|--------------|--------------|
|--------------|--------------|--------------|--------------|
|--------------|--------------|--------------|--------------|

play this riff at the end of the keys riff (overlaps the last bar of keys riff)
|-----------------------|
|-----------------------|
|-----------------------|
|-----------------------|
|-----1-----3-----1--3--|
|--3-----3-----3--------|

verse
|--------------|--------------|
|--------------|--------------|
|--5--------5--|--5-----5---5-|
|--5--------5--|--5-----5---5-|
|--3--------3--|--3-----3---3-|
|--------------|--------------|


|-------------|-------------|-------------|-------------|
|-------------|-------------|-------------|-------------|
|-------------|-------------|-------------|-------------|
|--8------8---|--8------8---|--6------6---|--6------6---|
|--8------8---|--8------8---|--6------6---|--6------6---|
|--6------6---|--6------6---|--4------4---|--4------4---|
back to intro riff between singing

guitar plays this riff in background on this next bit
|--------------|--------------|--------------|--------------|
|--------------|--------------|--------------|--------------|
|--------------|--------------|--------------|--------------|
|--1-------3-4-|--1------3---4|--1-------3-4-|--1------3---4|
|--------------|--------------|--------------|--------------|
|--------------|--------------|--------------|--------------|

here is the root chord you can play as well as the riff above
|--------------|--------------|--------------|--------------|
|--------------|--------------|--------------|--------------|
|--------------|--------------|--------------|--------------|
|--------------|--------------|--------------|--------------|
|--6--6--6--6--|--6--6--6--6--|--6--6--6--6--|--6--6--6--6--|
|--4--4--4--4--|--4--4--4--4--|--4--4--4--4--|--4--4--4--4--|


|--------------|--------------|--------------|--------------|
|--------------|--------------|--------------|--------------|
|--5-----------|--------------|--5-----------|--------------|
|--5-----------|--------------|--5-----------|--------------|
|--3-----------|--------------|--3-----------|--------------|
|--------------|--------------|--------------|--------------|
let ring

|--------------|--------------|--------------|--------------|
|--------------|--------------|--------------|--------------|
|--------------|--------------|--------------|--------------|
|--------------|--------------|--------------|--------------|
|--6--6--6--6--|--6--6--6--6--|--6--6--6--6--|--6--6--6--6--|
|--4--4--4--4--|--4--4--4--4--|--4--4--4--4--|--4--4--4--4--|

(so close now your nearly at the brink)
|--------------|--------------|--------------|--------------|
|--------------|--------------|--------------|--------------|
|--------------|--------------|--------------|--------------|
|--3-----------|--------------|--5-----------|--------------|
|--3-----------|--------------|--5-----------|--------------|
|--1-----------|--------------|--3-----------|--------------|
let ring

backing for solo (bass notes)
|--------------|--------------|--------------|--------------|
|--------------|--------------|--------------|--------------|
|--------------|--------------|--------------|--------------|
|--------------|--------------|--------------|--------------|
|--6--6--6--6--|--6--6--6--6--|--6--6--6--6--|--6--6--6--6--|
|--------------|--------------|--------------|--------------|


Keys solo (arranged for guitar)
|--------------|--------------|--------------|--------------|
|--------------|--------------|----6---6-8---|--------------|
|--------------|--------------|--8---8-----5-|--------------|
|--------------|--------------|--------------|--------------|
|--------------|--------------|--------------|--------------|
|--------------|--------------|--------------|--------------|

|-----------6--|--6-----------|--6-8-10--10--|--11--10---8--|
|----6-8--8----|--------------|--------------|--------------|
|--8-----------|--------------|--------------|--------------|
|--------------|--------------|--------------|--------------|
|--------------|--------------|--------------|--------------|
|--------------|--------------|--------------|--------------|

|--8-10-11-11--|-10-11--------|--8-----------|--------------|
|--------------|----------11--|------8----11-|---------8----|
|--------------|--------------|--------------|--8--10-------|
|--------------|--------------|--------------|-----------10-|
|--------------|--------------|--------------|--------------|
|--------------|--------------|--------------|--------------|


|--------------|--------------|--------------|--------------|
|--9-9-8-9---8-|-11--9-8---11-|--9--8--------|--9--8--------|
|--------------|--------------|--------8-----|--------8-----|
|--------------|--------------|--------------|--------------|
|--------------|--------------|--------------|--------------|
|--------------|--------------|--------------|--------------|

After solo go back to verse part, listen to the song for exact structure
Tap to rate this tab
 
# A B C D E F G H I J K L M N O P Q R S T U V W X Y Z