Song name
# A B C D E F G H I J K L M N O P Q R S T U V W X Y Z

Giorgio Moroder - Shoot And Drive Away tab

shoot and drive away



giorgio moroder




album:  scarface: the world is yours




TRANSCRIBED BY RUDY GUZMAN




guzman_84@hotmail.com




 pm...............................                                              
e:---------------------------------|
B:---------------------------------|
G:---------------------------------|
D:---------------------------------|
A:---3---3---3---3---2---2---2---2-|
E:-0---0---0---0---0---0---0---0---|

 pm...............................................................
e:-----------------------------------------------------------------|
B:-----------------------------------------------------------------|
G:-----------------------------------------------------------------|
D:-----------------------------------------------------------------|
A:---7---7---7---7---5---5---5---5---3---3---3---3---2---2---2---2-|
E:-0---0---0---0---0---0---0---0---0---0---0---0---0---0---0---0---|


e:---------------------------------------------------|
B:---------------------------------------------------|
G:---------------------------5-5-4-------------------|
D:------5-5-4----------------------7-5--------5------|
A:------------7-5--5h7--7~~-----------------5---7~~~-|
E:-12\----------------------------------5h7----------|

                                              
e:----------------------------------------------|
B:----------------------------------------------|
G:----------------------5-5-4-------------------|
D:-5-5-4----------------------7-5--------5------|
A:-------7-5--5h7--7~~-----------------5---7~~~-|
E:---------------------------------5h7----------|

  solo
e:----------------------------------------------------|
B:----------------------------------------------------|
G:-2ahbf---(2ah)---2ahb-2ahb-2ahb-2ahb-2ahb-2ahb-2ahb-|
D:----------------------------------------------------|
A:----------------------------------------------------|
E:----------------------------------------------------|

e:-----------------------------------------------|
B:-----------------------------------------------|
G:-2bf0----------2ahbp0----0ah-2ah-0ah-----------|
D:------2-0-2------------2-------------2ah~~~~/--|
A:-----------------------------------------------|
E:-----------------------------------------------|

e:-------------------------------------------------------------------------------|
B:-15b--15b~~~~~------12-15p12-----12h15p12----12h15p12----12h15p12-----12h15p12-|
G:-----------------14-----------14----------14----------14-----------14----------|
D:-------------------------------------------------------------------------------|
A:-------------------------------------------------------------------------------|
E:-------------------------------------------------------------------------------|

e:----------------------------------------------------------------------------------|
B:----12-15p12-----12h15p12----12h15p12----12h15p12-----12h15p12-----15b--15b~~~~~~-|
G:-14-----------14----------14----------14-----------14----------14-----------------|
D:----------------------------------------------------------------------------------|
A:----------------------------------------------------------------------------------|
E:----------------------------------------------------------------------------------|

  gt1
e:----------------------------------------------|
B:----------------------------------------------|
G:----------------------5-5-4-------------------|
D:-5-5-4----------------------7-5--------5------|
A:-------7-5--5h7--7~~-----------------5---7~~~-|
E:---------------------------------5h7----------|

  gt2                                                  x2
e:-------------------------------------------------------|
B:-------------------------------------------------------|
G:-------------------------------------------------------|
D:-2-----------4----------5----------7-------9-----------|
A:-------------------------------------------------------|
E:-------------------------------------------------------|

  gt2                                                  x2
e:-------------------------------------------------------|
B:-------------------------------------------------------|
G:-4-----------6----------7----------9-------11----------|
D:-2-----------4----------5----------7-------9-----------|
A:-------------------------------------------------------|
E:-------------------------------------------------------|




hillo son mex

30/09/12
Tap to rate this tab
 
# A B C D E F G H I J K L M N O P Q R S T U V W X Y Z