Song name
# A B C D E F G H I J K L M N O P Q R S T U V W X Y Z

Gipsy Kings - Amor Mio tab

E||--------------|--------------------------||----------------------||
B||--------------|--------------------------||----------------------||
G||-----0--------|--0--0--------------------||*--------------------*||
D||--------------|--------4--4----2----0----||*--------0--2--4--4--*||
A||--2-----------|--------------------------||----------------------||
E||--------------|--------------------------||----------------------||


--------------------------------------||------------------------||
--------------------------------------||------------------------||
--------------------------------------||*----------------------*||
--4--4--2--2----0----0----------------||*-------0--2--4--------*||
--------------------------------------||------------------------||
--------------------------------------||------------------------||


------------------|-----------------------||
------------------|-----------------------||
------------------|-----------------------||
--2--3--5----0----|-------0--2--3----0----||
------------------|-----------------------||
------------------|-----------------------||
Tap to rate this tab
 
# A B C D E F G H I J K L M N O P Q R S T U V W X Y Z