Gipsy Kings - Baila Me tab

------------------------|------------------------|------------------------|
------------------------|------------------------|------------------------|
----------------0-------|----------------0-------|----------------0-------|
--0-----------0---4-0---|--0-----------0---4-0---|--0-----------0---4-0---|
----2-------2---------2-|----2-------2---------2-|----2-------2---------2-|
------3---3-------------|------3---3-------------|------3---3-------------|

------------------------|
------------------------|
----------------0-------|
--0-----------0---------|
----2-------2-----------|
------3---3-------2-----| then play G repeatedly :)
Tap to rate this tab
 
# A B C D E F G H I J K L M N O P Q R S T U V W X Y Z