Gipsy Kings - Gypsy Basso tab

Ok in my culture we play this kinda of music in our language , So here it is

Tabbed By Brandon ,

BACH AY SASTIMOS

Standard Tunning

Intro

e|-------5--7-5------5--7--5---------4--5--------5-|
B|----6------------5---------------3-------------5-|
G|-7-------------5--------------4----------------5-|
D|-------------------------------------------------|
A|-------------------------------------------------|
E|-------------------------------------------------|


e|----5-5-5------------5---------5-8-8-5-4--4-5-7-4-5-4-5-4--|
B|-----------8-6-5---6----8-6-5------------------------------|
G|-----------------7-----------------------------------------|
D|-----------------------------------------------------------|
A|-----------------------------------------------------------|
E|-----------------------------------------------------------|

e|----5-5-5-------------5--------------------------------------|
B|-----------8-6-5----6----8-6-5-----5-------------------------|
G|------------------7-------------7-----7-5-4-4-5-7-5-4-5-4-5--|
D|-------------------------------------------------------------|
A|-------------------------------------------------------------|
E|-------------------------------------------------------------|

Now this song requires a pick , you need to move the pick up and down quickly
for it to sound right.....

Dont Remember Full Tab Chart To This Song But Here Are The Chords

e|-5----5----5----5----5-------|
B|-5----5----5----5----5-------|
G|-5----5----5----5----5-------|   Repeat About X4
D|-X----X----X----X----X-------|
A|-X----X----X----X----X-------|
E|-5----0----5----0----5-------|

In order to play this right Bridge 5th Fret Pick The E Sting Only

Then Hit e B G , then start over but this time hit 0 on E and then

hit e B G ..


e B G is always on 5th fret


Anymore Questions how to play email me at

boostix98@hotmail.com
Tap to rate this tab
 
# A B C D E F G H I J K L M N O P Q R S T U V W X Y Z