Song name
# A B C D E F G H I J K L M N O P Q R S T U V W X Y Z

Gipsy Kings - Rumba Compas Titcho tab

Hello Dad Keef halak !! ;)) hey guys i wrote this tab for my dad !!! hope u like it !!
well i think its for stes maries de la mer ,,,, i dunno !! but here is the tab !! ::
there are teq for strumming !!! you should listen to it and play it well !!!

the chords are Am , E , F , G !! :)


intro
         2 Times

e--0--0-0-0-0---0-1-0-----0---------------|
b--1----------3------3-1--0---------------|
g--2----------------------1---------------|
d--2----------------------2---------------|
a--0----------------------2---------------|
e-------------------------0---------------|






         2 Times dad !! befhamfoooo !! ;))
e-----------------------------------------------------------|
b-------1-1-1-1-1-1-1-1-1-1-0-1-3-1-0---0-0-0-0-0-0-0-0-0-0-|
g---2-4-------------------------------2---------------------|
d--2--------------------------------------------------------|
a-----------------------------------------------------------|
e-----------------------------------------------------------|

-------------------------------------------------0---------|
--0-1-0------------------------------------------0---------|
-2------2-0--2-2-2-2-2-2-2-2-2-2---0-2-0---------1---------|
----------------------------------3------3-2-----2---------|
-------------------------------------------------2---------|
-------------------------------------------------0---------|






then dad after this part you play chords . E , F , G , F , E







                                        Solo

e-----4-4-5-5-7-7-7-7-7-7-7-7---5-4----4-5--4-------4-5-4--------|
b---6-------------------------------6---------6-5-6-------6-5----|
g----------------------------------------------------------------|
d----------------------------------------------------------------|
a----------------------------------------------------------------|
e----------------------------------------------------------------|

-----4-4/5-4-----5-4-------4-5-7-8-7-5----5-4/5-------------------|
-5-6-----------------6-5-6----------------------6-5--5/6--5/6-----|
------------------------------------------------------------------|
------------------------------------------------------------------|
------------------------------------------------------------------|
------------------------------------------------------------------|








                                                         Last Part

 2 Times              2 times                 2 times
e-5-------7-5-8-8-7-5---3--------5-3-7-7-5-3----1------3-1-5-5-3-1--0--|
b-5---------------------3-----------------------1-------------------0--|
g-5---------------------4-----------------------2-------------------1--|
d-7---------------------5-----------------------3-------------------2--|
a-7---------------------5-----------------------3-------------------2--|
e-5---------------------3-----------------------1-------------------0--|



 Enjoy Dad !! Love you !! ;))) Rami Saleh !! :PPP and enjoy guys !!
Tap to rate this tab
 
# A B C D E F G H I J K L M N O P Q R S T U V W X Y Z