Song name
# A B C D E F G H I J K L M N O P Q R S T U V W X Y Z

Gipsy Kings - Luna De Fuengo tab

The timing is a bit difficult to get down. If you play without practically memorizing 
sing it won't sound anything like it. But this is probably one of my favourite songs by 
Kings. Enjoy!
(Capo 1st Fret)

Intro:

Bm / / /
Em / / /
A / / /
D / / /
Bm / / /
Em / / /
F#7 / / /
Bm / / /


Part I
       Em            A              D         G
|-----5-7-7-7---9-10-9--9--9----5-7---------9-7-7-7-|
|-7-8---8-8-8--------10-10-10-------7-7-7-----8-8-8-|
|-------4-4-4--------9--9--9--------7-7-7-----7-7-7-|
|-----------------------------------7-7-7-----------|
|---------------------------------------------------|
|---------------------------------------------------|
      C#7       F#7
|-5-7---------7-6-6-6--4-6---7-6-5-4-|
|-----7-6-7-----5-5-5----------------|
|---------------6-6-6----------------|
|------------------------------------|
|------------------------------------|
|----------------------------7-6-5-4-|
       Em            A              D         G
|-----5-7-7-7---9-10-9--9--9----5-7---------9-7-7-7-|
|-7-8---8-8-8--------10-10-10-------7-7-7-----8-8-8-|
|-------4-4-4--------9--9--9--------7-7-7-----7-7-7-|
|-----------------------------------7-7-7-----------|
|---------------------------------------------------|
|---------------------------------------------------|
      C#7       F#7
|-5-7---------7-6-6-6--4-6-7-|
|-----7-6-7-----5-5-5--------|
|---------------6-6-6--------|
|----------------------------|
|----------------------------|
|----------------------------|


Part II
          Em                       A                       D             B7
|-------------------5/7-5-5-3------2-0-0-----|-----------------------------|
|-0h2h3-3-3p2-3p2p0------------2-3-------3-2-|-2p0-------------------0-1p0-|
|--------------------------------------------|-----2-2-0-0-------0-2-------|
|--------------------------------------------|-------------4---4-----------|
|--------------------------------------------|-----------------------------|
|--------------------------------------------|-----------------------------|
            Em          G                         F#7
|---------------------------------|-----------------------|
|---------------------------------|----0-5-3-2-0-0--------|
|-2p0---0-2-----------0-2h4p2p0---|0-2-------------3------|
|-----4-----5p4p2---4-----------4-|-----------------------|
|---------------------------------|-----------------------|
|---------------------------------|-----------------------|

Part III (2x)
 Bm               G                       A                     D
|---------------------------------------|-------------------------------|
|-0-2h3-0/2-0-2-3-2-3-2-0-2-3-0/2-0-2-3-|-2-3-2-0-2-3-0-2---3p2p0-------|
|---------------------------------------|-------------------------2-0---|
|---------------------------------------|-----------------------------4-|
|---------------------------------------|-------------------------------|
|---------------------------------------|-------------------------------|


Part IV
           Bm                      Em         F#7
|--------7-7/8h7---------------------|----------------------------|
|-7-8-10---------10-10p8p7h8---------|------------0---0-2-0---0---|
|----------------------------8-8h9-9-|--------------3-------3---3-|
|------------------------------------|---2p1p0--------------------|
|------------------------------------|---------4------------------|
|------------------------------------|----------------------------|


Part V
         Em       A               D         B7         C#7         F#7
|-7-6--------7-10-9--9--9--|--5-7-------------|-----------------------|
|-----10-8--------10-10-10-|------7-7-7-7-8-7-|--10-9-8-7---8-7-8-7-7-|
|-----------------9--9--9--|------7-7-7-------|-----------------------|
|--------------------------|------7-7-7-------|-----------------------|
|--------------------------|------------------|-----------------------|
|--------------------------|------------------|-----------------------|
        Em        A               D         B7         C#7         F#7
|-7-5--------7-10-9--9--9--|--5-7-------------|-----------------------|
|-----8-7---------10-10-10-|------7-7-7-7-8-7-|--10-9-8-7---8-7-8-7-7-|
|-----------------9--9--9--|------7-7-7-------|-----------------------|
|--------------------------|------7-7-7-------|-----------------------|
|--------------------------|------------------|-----------------------|
|--------------------------|------------------|-----------------------|


Interlude:

Bm / / /
Em / / /
A / / /
D / / /
Bm / / /
Em / / /
F#7 / / /
Bm / / /

Repeat Part I
Repeat Part II
Repeat Part III (2x)
Repeat Part IV
Repeat Part V
Tap to rate this tab
# A B C D E F G H I J K L M N O P Q R S T U V W X Y Z