Song name
# A B C D E F G H I J K L M N O P Q R S T U V W X Y Z

Girl In A Coma - Their Cell tab

Song: Their Cell
Artist: Girl in a Coma
Album: Both Before I'm Gone

Standard Tuning
Played with slight overdrive

Intro:

e--------9-----9-9-----------9-----9-9----|
B--10-12---10-9-9---10-12-10---10-9-9-----|
G-----------------------------------------|
D-----------------------------------------|
A-----------------------------------------|
E-----------------------------------------|

e--------7-7/9--7------------7-7/9--7------------|
B---7-10----------10-7--6-10----------10-7-7/10--|(hold)
G------------------------------------------------|
D------------------------------------------------|
A------------------------------------------------|
E------------------------------------------------|


Main Riff:

e---5-------4-------2-------7-------------------------------------|
B---5-------4-------2-------7-------------------------------------|
G---6-------5-------2-------8-------------------------------------|
D---7-------6-------4-------9-------------------------------------|
A---7-------6-------4-------9-------------------------------------|
E---5-------4-------2-------7-------------------------------------|

   each bar chord is played 16 times before changing to the next

That is the riff for the majority of the song.
Email me @ juliandrum@gmail.com if you have any problems.
Tap to rate this tab
 
# A B C D E F G H I J K L M N O P Q R S T U V W X Y Z