Song name
# A B C D E F G H I J K L M N O P Q R S T U V W X Y Z

Girl In A Coma - A Conversation Acoustic tab

Girl In A Coma
"A Conversation"  Acoustic


------------------------------------------|
------------------------------------------|
---9--9--8--6--6--------------------------|
-----------------6--6/9--9---9---9---9----|
---------------------------9---9---9----9-|
------------------------------------------|


------------------------------------------|
------------------------------------------|
---9--6-----------------------------------|
---------6--6/9--9---9---9---9------------|
-------------------9---9---9---9----------|
------------------------------------------|


------------------------------------------|
------------------------------------------|
---9----6---------------------------------|
---9----6----6----9-----------------------|
---7----4----6----9-----------------------|
-------------4----7-----------------------|

------------------------------------------|
----9---9---9--------5---5---5------------|
---9---9---9--9-----6---6---6--6----------|
------------------------------------------|
------------------------------------------|
------------------------------------------|

-------------------------------------------|
-------------------------------------------|
----5---5---5------------------------------|
---6---6---6--6---9-9---9-9---9-9---9-9----|
---------------------9-9---9-9---9-9---9-9-|
-------------------------------------------|
Tap to rate this tab
 
# A B C D E F G H I J K L M N O P Q R S T U V W X Y Z