Song name
# A B C D E F G H I J K L M N O P Q R S T U V W X Y Z

Girl In A Coma - Clumsy Sky tab

Girl In A Coma
"Clumsy Sky"

--------------------------------------------------------------------|
--------------------------------------------------------------------|
-----6---------6---------6---------6--------------------------------|
--3---3-----3---3-----3---3-----3---3-------5---------5---------5---|
-4-4---4---4-4---4---4-4---4---4-4---4---3---3-----3---3-----3---3--|
----------------------------------------4-4---4---4-4---4---4-4---4-|


-------------------------------------------------------------------|
-------------------------------------------------------------------|
-------------------------------------------------------------------|
-----5---------4---------4---------4---------4---------------------|
--3---3-----1---1-----1---1-----1---1-----1---1--------------------|
-4-4---4---2-2---2---2-2---2---2-2---2---2-2---2-------------------|

--------------------------------------------------------------------|
--------------------------------------------------------------------|
-----6---------6---------6---------6--------------------------------|
--3---3-----3---3-----3---3-----3---3-------5---------5---------5---|
-4-4---4---4-4---4---4-4---4---4-4---4---3---3-----3---3-----3---3--|
----------------------------------------4-4---4---4-4---4---4-4---4-|


---------------------------------------------------------------------|
---------------------------------------------------------------------|
---------------------------------------------------------------------|
-----5---------4---------4---------4---------4---------4---------4---|
--3---3-----1---1-----1---1-----1---1-----1---1-----1---1-----1---1--|
-4-4---4---2-2---2---2-2---2---2-2---2---2-2---2---2-2---2---2-2---2-|

-------2-------2---------|
---6---2---6---2---------|
---6---3---6---3---------|
---6---4---6---4---------|
---4---4---4---4---------|
-------2-------2---------|


-------------------------|
-------------------------|
---9---6---5---8---------|
---9---6---6---9---------|
---7---4---6---9---------|
-----------4---7---------|


-------------------------|
-------------------------|
---6/--9---6-------------|
---6/--9---6---6---------|
---4---7---4---6---------|
---------------4---------|


-------2-------2---------|
---6---2---6---2---------|
---6---3---6---3---4-----|
---6---4---6---4---4--6--|
---4---4---4---4---2--6--|
-------2-------2------4--|


-------2---------------2-----|
---6---2-----------6---2-----|
---6---3---4-------6---3---2-|
---6---4---4---6---6---4---3-|
---4---4---2---6---4---4---3-|
-------2-------4-------2-----|
Tap to rate this tab
 
# A B C D E F G H I J K L M N O P Q R S T U V W X Y Z