Song name
# A B C D E F G H I J K L M N O P Q R S T U V W X Y Z

Girl In A Coma - Bb tab

Girl In A Coma
"BB"


Capo on 3rd fret-all notes counted up from capo

--0--7\-0--7-8-10-8-7--5-7-5-3-5-3p0------------------0----------------|
--------------------------------------0h1h3p1p0---------0--------------|
-----------------------------------------------------------------------|
--------------------------------------------------2--------------------|
------------------------------------------------2----------------------|
-----------------------------------------------------------------------|


--0--7\-0--7-8-10-8-7-10/12-12-10-8-7--5-7-5-3-5-3p0---------------0---|
-----------------------------------------------------0h1h3p1p0-------0-|
-----------------------------------------------------------------------|
-----------------------------------------------------------------2-----|
---------------------------------------------------------------2-------|
-----------------------------------------------------------------------|


chords

Em,Am,D,G
Tap to rate this tab
 
# A B C D E F G H I J K L M N O P Q R S T U V W X Y Z