Song name
# A B C D E F G H I J K L M N O P Q R S T U V W X Y Z

Girl In A Coma - Trail Live tab

Girl In A Coma
"Trail"


---9---8---6---9----------------------6----------9---8---9---9-------|
---9---9---7--10----------------------7----------9---9---9--10-------|
--10--10---8--11--(X 3)---------------8--(X 2)--10--10--10--11-------|
--11--10---8--11----------8--7--8--7--8---------11--10--11--11-------|
--11---8---6---9----------8--8--8--8--6---------11---8--11---9-------|
---9----------------------6--6--6--6-------------9-------9-----------|

--9---8---6---9-------------------6---------------------9--11--12-----|
--9---9---7--10-------------------7------------12------10--12--13-----|
-10--10---8--11-(X 2)-------------8-(X 2)--10--11------11--13--14-----|(X2)
-11--10---8--11-------8--7--8--7--8--------10---9------11--13--14-----|
-11---8---6---9-------8--8--8--8--6---------8-----------9--11--12-----|
--9-------------------6--6--6--6--------------------------------------|

-------------------------------------------------9--6---8---9--------|
------------------------------------------------10--7---9--10--------|
--9--8--6--8--9--14--13--11--13--14--9--11--13--11--8--10--11--------|
--9--8--6--8--9--14--13--11--13--14--9--11--13--11--8--10--11--------|
--7--6--4--6--7--12--11---9--11--12--7---9--11---9--6---8---9--------|
---------------------------------------------------------------------|

---9---8--6---8---9---------9---8--7--6---8---9---8--6---9-----------|
---9---9--7---9--10---------9---9--8--7---9--10---9--7---9-----------|
--10--10--8--10--11-(X 2)--10--10--9--8--10--11--10--8--10-----------|
--11--10--8--10--11--------11--10--9--8--10--11--10--8--11-----------|
--11---8--6---8---9--------11---8--7--6---8---9---8--6--11-----------|
---9------------------------9----------------------------9-----------|
Tap to rate this tab
# A B C D E F G H I J K L M N O P Q R S T U V W X Y Z