Song name
# A B C D E F G H I J K L M N O P Q R S T U V W X Y Z

Girl In A Coma - El Monte tab

Girl in a Coma
"El Monte"

-----------------------------------------------------|
-----------------------------------------------------|
--------1---------------5-------6-----------6--------|
------2---2--------2----6-----7---7-------7---7------|
----2-------2----2----6-----7------7----7-------7----|
--0------------0----4-----5-----------5--------------|

---------------------------------------------------------------------------|
---------------------------------------------------------------------------|
--------1--------------5--------6----------6-------------6----------6------|
------2---2------2-----6------7---7------7--7----------7---7------7---7----|
----2------2---2-----6------7------7---7------7------7------7---7-------7--|
--0-----------0----4------5-----------5----------0--5----------5---------0-|


------------------------------------------------------------------------|
------------------------------------------------------------------------|
--------3------------3--------------6-----------6--------6----8---------|
------4---4--------4---4----------7---7-------7---7------7----9---------|
----4------4-----4-------4------7------7----7------7-----7----9---------|
--2------------2------------0-5-----------5--------------5----7---------|

-----------------------------------------------------|
-----------------------------------------------------|
--------1----------------5---------6----------6------|
------2---2-------2------6-------7---7------7---7----| x 2
----2-------2----2------6------7------7---7------7---|
--0------------0------4------5----------5------------|


-------------------------------------------------------------------------|
-------------------------------------------------------------------------|
--------1-------------5--------6-----------6-------------6---------6-----|
------2---2------2----6------7---7-------7---7---------7---7------7--7---|
----2------2----2----6-----7------7----7------7------7------7---7-----7--|
--0-----------0-----4----5-----------5-----------0--5----------5-------0-|


----------------------------------------------------------------------|
----------------------------------------------------------------------|
--------3------------3---------------6----------6-----------8---------|
------4---4--------4---4-----------7---7-------7--7---------9---------|
----4------4-----4-------4-------7------7----7------7-------9---------|
--2------------2------------0--5-----------5----------------7---------|


--------------      -----------------------------------------|
--------------      -----------------------------------------|
--3---5---6---      -3---5---6---3---6---8-----3---5---6---8-|
--2---6---7--- x 4  -2---6---7---4---7---9-----2---6---7---9-|
--2---6---7---      -2---6---7---4---7---9-----2---6---7---9-|
--0---4---5---      -0---4---5---2---5---7-----0---4---5---7-|


--------------      ---------------------------|
--------------      ---------------------------|
--3---5---6---      -3---5---6---3---6---8-----|
--2---6---7--- x 4  -2---6---7---4---7---9-----|
--2---6---7---      -2---6---7---4---7---9-----|
--0---4---5---      -0---4---5---2---5---7-----|

------------------------------------------------------------------------|
------------------------------------------------------------------------|
--------1--------------5-------6-----------6-----------1-----------5--6-|
------2---2------2-----6-----7---7-------7---7-------2---2-----2---6--7-|
----2------2----2-----6----7------7----7------7----2------2---2----6--7-|
--0-----------0-----4----5-----------5-----------0-----------0-----4--5-|


--------------------------------------------------|
--------------------------------------------------|
--8---7---6---7---8-----3---5---8-----3---5---8---|
--9---8---7---8---9-----2---6---9-----2---6---9---|
--9---8---7---8---9-----2---6---9-----2---6---9---|
--7---6---5---6---7-----0---4---7-----0---4---7---|


-----------------------------------------------------------------------|
-----------------------------------------------------------------------|
--------1--------------5--------6----------6-----------1----------5--6-|
------2---2------2-----6------7--7-------7---7-------2---2-----2--6--7-|
----2------2----2-----6-----7------7----7-----7----2------2---2---6--7-|
--0-----------0-----4-----5-----------5----------0-----------0----4--5-|
Tap to rate this tab
# A B C D E F G H I J K L M N O P Q R S T U V W X Y Z