Song name
# A B C D E F G H I J K L M N O P Q R S T U V W X Y Z

Girl In A Coma - Static Mind tab

Intro (Distortion)

e|---------------------------------------------------------------------------|
B|---------------------------------------------------------------------------|
G|-------------7~---9~------------------7-7-7-7-7-7-7-7-7-7-7-7-7-7-7-7-7----|
D|---5~---7~---7~---9~---9~---5~---7~---7-7-7-7-7-7-7-7-7-7-7-7-7-7-7-7-7----|
A|---5~---7~---5~---7~---9~---5~---7~---5-5-5-5-5-5-5-5-5-5-5-5-5-5-5-5-5----|
E|---3~---5~-------------7~---3~---5~----------------------------------------|


Verse - x2 (Clean)

e|---------------------------------------------------------------------------|
B|---------------------------------------5-5-5-5-5-5-5-5---------------------|
G|---------------------------------------3-3-3-3-3-3-3-3---------------------|
D|---5-5-5-5-5-5-5-5---7-7-7-7-7-7-7-7---4-4-4-4-4-4-4-4---5-5-5-5-5-5-5-5---|
A|---5-5-5-5-5-5-5-5---7-7-7-7-7-7-7-7---------------------5-5-5-5-5-5-5-5---|
E|---3-3-3-3-3-3-3-3---5-5-5-5-5-5-5-5---------------------3-3-3-3-3-3-3-3---|

Chorus - x2 (w/ Distortion)

e|---------------------------------------------------------------------------|
B|---------------------------------------5-5-5-5-5-5-5-5---------------------|
G|---------------------------------------3-3-3-3-3-3-3-3---------------------|
D|---5-5-5-5-5-5-5-5---7-7-7-7-7-7-7-7---4-4-4-4-4-4-4-4---5-5-5-5-5-5-5-5---|
A|---5-5-5-5-5-5-5-5---7-7-7-7-7-7-7-7---------------------5-5-5-5-5-5-5-5---|
E|---3-3-3-3-3-3-3-3---5-5-5-5-5-5-5-5---------------------3-3-3-3-3-3-3-3---|

after the 2nd time play:

e|--------------------------------------|
B|--------------------------------------|
G|---7-7-7-7-7-7-7-7-7-7-7-7-7-7-7-7----|
D|---7-7-7-7-7-7-7-7-7-7-7-7-7-7-7-7----|
A|---5-5-5-5-5-5-5-5-5-5-5-5-5-5-5-5----|
E|--------------------------------------|

Intro
Verse
Chorus x2

Outro

e|---------------------------------------------------------------------------|
B|---------------------------------------------------------------------------|
G|---------7~--9~------------------------------------------------------------|
D|-5~--7~--7~--9~--9~--5-5-5-5--7-7-7-7--5-5-5-5--7-7-7-7--5-5-5-5--7-7-7-7--|
A|-5~--7~--5~--7~--9~--5-5-5-5--7-7-7-7--5-5-5-5--7-7-7-7--5-5-5-5--7-7-7-7--|
E|-3~--5~----------7~--3-3-3-3--5-5-5-5--3-3-3-3--5-5-5-5--3-3-3-3--5-5-5-5--|

e|-------------------------------------|
B|-------------------------------------|
G|--7-7-7-7-7-7-7-7-7-7-7-7-7-7-7-7----|
D|--7-7-7-7-7-7-7-7-7-7-7-7-7-7-7-7----|
A|--5-5-5-5-5-5-5-5-5-5-5-5-5-5-5-5----|
E|-------------------------------------|
Tap to rate this tab
 
# A B C D E F G H I J K L M N O P Q R S T U V W X Y Z