Song name
# A B C D E F G H I J K L M N O P Q R S T U V W X Y Z

Girl Repellent - Regret tab

Girl Repellent - Regret 
By:Andrew (Guitarguyx182@belg88.com)

Untro
e|---------------------------------------------------------------------------|
B|---------------------------------------------------------------------------|
G|-7-4-5-4-------4-5-4-----4-4-5-4--------4-5-4------------------------------|
D|-7--------5--5--------5--4-------5---7--------5---------x2-----------------|
A|-5-----------5-----------2-----------7-------------------------------------|
E|-------------3-----------------------5-------------------------------------|
Verse
e|---------------------------------------------------------------------------|
B|---------------------------------------------------------------------------|
G|-7-7-7-7---------4-4-4-4---------------------------------------------------|
D|-7-7-7-7-5-5-5-5-4-4-4-4-7-7-7-7------x4-----------------------------------|
A|-5-5-5-5-5-5-5-5-2-2-2-2-7-7-7-7-------------------------------------------|
E|---------3-3-3-3---------5-5-5-5-------------------------------------------|
Chorus
e|---------------------------------------------------------------------------|
B|---------------------------------------------------------------------------|
G|--------7-7-----------------7-7-7------------------------------------------|
D|-5-5-5--7-7--9-9-7-7--5-5-5-7-7-7-7-7-7------------------------------------|
A|-5-5-5--5-5--9-7-7-7--5-5-5-5-5-5-7-7-7------------------------------------|
E|-3-3-3-------7-7-5-5--3-3-3-------5-5-5------------------------------------|
Solo
e|--------5-3-2--3-3-3--5-3-2--------5-3-2---------5-3-2-2-2-2-5-3-2---------|
B|-3-3-3---------------------------------------------------------------------|
G|----------------------------4-4-4---------2-2-2----------------------------|
D|---------------------------------------------------------------------------|
A|---------------------------------------------------------------------------|
E|---------------------------------------------------------------------------|

e|-5-5-5-5-5-3-3-3-3-3-2-3-2-------------------------------------------------|
B|---------------------------5-5-5-5-5---------------------------------------|
G|---------------------------------------------------------------------------|
D|---------------------------------------------------------------------------|
A|---------------------------------------------------------------------------|
E|---------------------------------------------------------------------------|
Tap to rate this tab
 
# A B C D E F G H I J K L M N O P Q R S T U V W X Y Z