Song name
# A B C D E F G H I J K L M N O P Q R S T U V W X Y Z

Girl Repellent - Dont Tell Her I Was Asking tab

Girl Repellent - Dont Tell Her I Was Asking
By:Andrew (Guitarguyx182@belg88.com)

Intro
(Guitar 1)
e|---------------------------------------------------------------------------|
B|---------------------------------------------------------------------------|
G|------------9-9-9-9-6-6-6-6-7-7-7-7-7--------------------------------------|
D|--7-7-7-7-7-9-9-9-9-6-6-6-6-7-7-7-7-7--------------------------------------|
A|--7-7-7-7-7-7-7-7-7-4-4-4-4-5-5-5-5-5--------------------------------------|
E|--5-5-5-5-5----------------------------------------------------------------|
(Guitar 2)
e|---------------------------------------------------------------------------|
B|---10----------------------------------------------------------------------|
G|---------------------------------------------------------------------------|
D|-7-------7-4------9-7-6-----6-4-7------------------------------------------|
A|-------0-----7-7--------4-4------------------------------------------------|
E|---------------------------------------------------------------------------|
Verse
e|---------------------------------------------------------------------------|
B|-2-2-2-2-------------------------2-2-2-2-----------------------------------|
G|-2-2-2-2-9-9-9-9-6-6-6-6-7-7-7-7-2-2-2-2-9-9-9-9-7-7-7-7-------------------|
D|-0-0-0-0-9-9-9-9-6-6-6-6-7-7-7-7-0-0-0-0-9-9-9-9-7-7-7-7-------------------|
A|---------7-7-7-7-4-4-4-4-5-5-5-5---------7-7-7-7-5-5-5-5-------------------|
E|---------------------------------------------------------------------------|
Chorus
e|---------------------------------------------------------------------------|
B|---------------------------------------------------------------------------|
G|--7-7-7-7-9-9-9-9---------7-7-7-7------------------------------------------|
D|--7-7-7-7-9-9-9-9-7-7-7-7-7-7-7-7------------------------------------------|
A|--5-5-5-5-7-7-7-7-7-7-7-7-5-5-5-5------------------------------------------|
E|------------------5-5-5-5--------------------------------------------------|
Solo
e|---------------------------------------------------------------------------|
B|---------------------------------------------------------------------------|
G|----9-7-6---9-7-6/7----9-7-6/7-7-------------------------------------------|
D|-7--------7---------7------------9-7-6-7---x2------------------------------|
A|---------------------------------------------------------------------------|
E|---------------------------------------------------------------------------|
Tap to rate this tab
# A B C D E F G H I J K L M N O P Q R S T U V W X Y Z