Song name
# A B C D E F G H I J K L M N O P Q R S T U V W X Y Z

Girl Repellent - Blah Blah Butterflies tab

Intro/Verse
e|-------------------------------------------------------------------------|
B|-------------------------------------------------------------------------|
G|-----------9-8----------------------9-8--9-8-----------------------------|
D|-9~~--9----9-8-----6---4-------x2---x-x--x-x-----------------------------|
A|-9~~--9----7-6-----6---4------------7-6--7-6-----------------------------|
E|-7~~--7------------4---2-------------------------------------------------|

Chorus
e|-------------------------------------------------------------------------|
B|-------------------------------------------------------------------------|
G|-------------------------------------------------------------------------|
D|-6--------4------2------6-----4-----2------------------------------------|
A|-6--------4------2------6-----4-----2------------------------------------|
E|-4--------2------0------4-----2-----0------------------------------------|

Bridge
e|-------------------------------------------------------------------------|
B|-------------------------------------------------------------------------|
G|--8---9--------------8---9-----------------------------------------------|
D|--8---9----9----4----8---9----9-----4------------------------------------|
A|--6---7----9----4----6---7----9-----4------------------------------------|
E|-----------7----2-------------7-----2------------------------------------|

Outro 
e|--------7------------7--------7----7/6-----------------------------------|
B|----4------------4---------4---------------------------------------------|
G|-4-----------4-----------4-----------------------------------------------|
D|-------------------------------------------------------------------------|
A|-------------------------------------------------------------------------|
E|-------------------------------------------------------------------------|
Tap to rate this tab
 
# A B C D E F G H I J K L M N O P Q R S T U V W X Y Z