Song name
# A B C D E F G H I J K L M N O P Q R S T U V W X Y Z

Girls Aloud - Crocodile Tears tab

Girls Aloud  -  Tangled Up  -  Crocodile Tears



CAPO  on  2nd  fret




    Em              B               Asus2           B
e|-------------------------------------------------------------------|
B|--------------------------0---------------0---------------0--------|
G|----------0-----------4-----4---4-----2-----2---------4-----4---4--|
D|------2-----2-------4---4-----4-----2---2-----2-----4---4-----4----|
A|----2---2-----2-2-----------------0-------------0-2----------------|
E|--0----------------------------------------------------------------|


This is the acoustic guitar part that plays as the intro and is also
played throughout every verse (and the chorus if you want)





    Em              B               Asus2           B
e|-------------------------------------------------------------------|
B|-------------------------------------------------------------------|
G|------------------4---4---------------------------5---5-4-----4----|
D|--5---5-4-----4-----4---4---4-4---5---5-4-----4-------------4---4--|
A|----2-------2---2-------------------3-------3---3------------------|
E|-------------------------------------------------------------------|


I'm guessing that this is played on some kind of synthesiser but on a
second guitar works too. It's played in the background and you tend
to only really hear the last few notes (-5---5-4-). Also CAPO on 2




Tabbed by NintEndO
Tap to rate this tab
 
# A B C D E F G H I J K L M N O P Q R S T U V W X Y Z