Song name
# A B C D E F G H I J K L M N O P Q R S T U V W X Y Z

Girls Aloud - Wake Me Up tab

Girls Aloud - Wake Me Up



  Main Riff

e|--------------------------------------------------------------------|
B|--------------------------------------------------------------------|
G|--------------------------------------------------------------------|
D|--------------------------------------------------------------------|
A|--/7---7--/1---1-2---2-2----------/7---7--/1---1-2---2-2-2-2---2----|
E|--------------------------/3---2------------------------------------|



  repeat during 1st Verse

e|-----------------------------------|
B|---5~------8~----7~----------------|
G|-----------------------------------|
D|-----------------------------------|
A|-----------------------------------|
E|-----------------------------------|



  guitar with effects

e|-----------------------|
B|---/8---/8---/8--------|
G|------------------9~---|
D|-----------------------|
A|-----------------------|
E|-----------------------|




Tabbed by NintEndO
Tap to rate this tab
 
# A B C D E F G H I J K L M N O P Q R S T U V W X Y Z