Song name
# A B C D E F G H I J K L M N O P Q R S T U V W X Y Z

Girls Aloud - Walk This Way tab

This is the song walk this way by girls aloud


E1------------------------------------------------------------------|
B2------------------------------------------------------------------|
G3------------------------------------------------------------------|
D4--------2--------2-----------2--------2---2-------2----------2----|
A5---0h1h2----0h1h2-------0h1h2----0h1h2-------0h1h2------0h1h2-----|
E6-------------------0--------------------3-----------------------0-|


E1-----------------------0------------------------------------------|
B2-----------------------1------------------------------------------|
G3-----------------------2------------------------------------------|
D4---------2---------2---2------------------------------------------|
A5----0h1h2-----0h1h2----0------------------------------------------|
E6------------------------------------------------------------------|
Tap to rate this tab
 
# A B C D E F G H I J K L M N O P Q R S T U V W X Y Z